  0
SECTION
  2
HEADER
  9
$ACADVER
  1
AC1009
  9
$INSBASE
 10
0.0
 20
0.0
 30
0.0
  9
$EXTMIN
 10
-45.599321298888754
 20
-104.00000000001
 30
0.0
  9
$EXTMAX
 10
45.599321298898751
 20
0.0
 30
0.0
  9
$LIMMIN
 10
0.0
 20
0.0
  9
$LIMMAX
 10
420.0
 20
297.0
  9
$ORTHOMODE
 70
     0
  9
$REGENMODE
 70
     1
  9
$FILLMODE
 70
     1
  9
$QTEXTMODE
 70
     0
  9
$MIRRTEXT
 70
     0
  9
$DRAGMODE
 70
     2
  9
$LTSCALE
 40
1.0
  9
$OSMODE
 70
   127
  9
$ATTMODE
 70
     1
  9
$TEXTSIZE
 40
2.5
  9
$TRACEWID
 40
1.0
  9
$TEXTSTYLE
  7
STANDARD
  9
$CLAYER
  8
0
  9
$CELTYPE
  6
CONTINUOUS
  9
$CECOLOR
 62
   256
  9
$DIMSCALE
 40
1.0
  9
$DIMASZ
 40
2.5
  9
$DIMEXO
 40
0.625
  9
$DIMDLI
 40
3.75
  9
$DIMRND
 40
0.0
  9
$DIMDLE
 40
0.0
  9
$DIMEXE
 40
1.25
  9
$DIMTP
 40
0.0
  9
$DIMTM
 40
0.0
  9
$DIMTXT
 40
2.5
  9
$DIMCEN
 40
2.5
  9
$DIMTSZ
 40
0.0
  9
$DIMTOL
 70
     0
  9
$DIMLIM
 70
     0
  9
$DIMTIH
 70
     0
  9
$DIMTOH
 70
     0
  9
$DIMSE1
 70
     0
  9
$DIMSE2
 70
     0
  9
$DIMTAD
 70
     1
  9
$DIMZIN
 70
     8
  9
$DIMBLK
  1

  9
$DIMASO
 70
     1
  9
$DIMSHO
 70
     1
  9
$DIMPOST
  1

  9
$DIMAPOST
  1

  9
$DIMALT
 70
     0
  9
$DIMALTD
 70
     3
  9
$DIMALTF
 40
0.03937007874016
  9
$DIMLFAC
 40
1.0
  9
$DIMTOFL
 70
     1
  9
$DIMTVP
 40
0.0
  9
$DIMTIX
 70
     0
  9
$DIMSOXD
 70
     0
  9
$DIMSAH
 70
     0
  9
$DIMBLK1
  1

  9
$DIMBLK2
  1

  9
$DIMSTYLE
  2
STANDARD
  9
$DIMCLRD
 70
     0
  9
$DIMCLRE
 70
     0
  9
$DIMCLRT
 70
     0
  9
$DIMTFAC
 40
1.0
  9
$DIMGAP
 40
0.625
  9
$LUNITS
 70
     2
  9
$LUPREC
 70
     4
  9
$SKETCHINC
 40
1.0
  9
$FILLETRAD
 40
3.0
  9
$AUNITS
 70
     0
  9
$AUPREC
 70
     0
  9
$MENU
  1
.
  9
$ELEVATION
 40
0.0
  9
$PELEVATION
 40
0.0
  9
$THICKNESS
 40
0.0
  9
$LIMCHECK
 70
     0
  9
$BLIPMODE
 70
     0
  9
$CHAMFERA
 40
0.0
  9
$CHAMFERB
 40
0.0
  9
$SKPOLY
 70
     0
  9
$TDCREATE
 40
2455559.2317578131
  9
$TDUPDATE
 40
2457377.7175148148
  9
$TDINDWG
 40
2.9210074537000001
  9
$TDUSRTIMER
 40
2.9210034721999998
  9
$USRTIMER
 70
     1
  9
$ANGBASE
 50
0.0
  9
$ANGDIR
 70
     0
  9
$PDMODE
 70
     0
  9
$PDSIZE
 40
0.0
  9
$PLINEWID
 40
0.0
  9
$COORDS
 70
     2
  9
$SPLFRAME
 70
     0
  9
$SPLINETYPE
 70
     6
  9
$SPLINESEGS
 70
     8
  9
$ATTDIA
 70
     1
  9
$ATTREQ
 70
     1
  9
$HANDLING
 70
     1
  9
$HANDSEED
  5
284
  9
$SURFTAB1
 70
     6
  9
$SURFTAB2
 70
     6
  9
$SURFTYPE
 70
     6
  9
$SURFU
 70
     6
  9
$SURFV
 70
     6
  9
$UCSNAME
  2

  9
$UCSORG
 10
0.0
 20
0.0
 30
0.0
  9
$UCSXDIR
 10
1.0
 20
0.0
 30
0.0
  9
$UCSYDIR
 10
0.0
 20
1.0
 30
0.0
  9
$PUCSNAME
  2

  9
$PUCSORG
 10
0.0
 20
0.0
 30
0.0
  9
$PUCSXDIR
 10
1.0
 20
0.0
 30
0.0
  9
$PUCSYDIR
 10
0.0
 20
1.0
 30
0.0
  9
$USERI1
 70
     0
  9
$USERI2
 70
     0
  9
$USERI3
 70
     0
  9
$USERI4
 70
     0
  9
$USERI5
 70
     0
  9
$USERR1
 40
0.0
  9
$USERR2
 40
0.0
  9
$USERR3
 40
0.0
  9
$USERR4
 40
0.0
  9
$USERR5
 40
0.0
  9
$WORLDVIEW
 70
     1
  9
$SHADEDGE
 70
     3
  9
$SHADEDIF
 70
    70
  9
$TILEMODE
 70
     1
  9
$MAXACTVP
 70
    64
  9
$PLIMCHECK
 70
     0
  9
$PEXTMIN
 10
25.699999999999989
 20
19.5
 30
0.0
  9
$PEXTMAX
 10
231.30000000000001
 20
175.5
 30
0.0
  9
$PLIMMIN
 10
-20.0
 20
-7.5
  9
$PLIMMAX
 10
277.0
 20
202.5
  9
$UNITMODE
 70
     0
  9
$VISRETAIN
 70
     1
  9
$PLINEGEN
 70
     0
  9
$PSLTSCALE
 70
     1
  0
ENDSEC
  0
SECTION
  2
TABLES
  0
TABLE
  2
VPORT
 70
     1
  0
VPORT
  2
*ACTIVE
 70
     0
 10
0.0
 20
0.0
 11
1.0
 21
1.0
 12
16458.127776663969
 22
5824.9361560382022
 13
0.0
 23
0.0
 14
10.0
 24
10.0
 15
10.0
 25
10.0
 16
-38962.971254248441
 26
-38962.97125424847
 36
38962.97125424847
 17
30714.317967474461
 27
7339.7553224022467
 37
0.0
 40
45085.451174768772
 41
1.56986301369863
 42
50.0
 43
0.0
 44
0.0
 50
0.0
 51
0.0000000000000313
 71
     0
 72
  1000
 73
     1
 74
     3
 75
     0
 76
     0
 77
     0
 78
     0
  0
ENDTAB
  0
TABLE
  2
LTYPE
 70
     3
  0
LTYPE
  2
CONTINUOUS
 70
     0
  3
Solid line
 72
    65
 73
     0
 40
0.0
  0
ENDTAB
  0
TABLE
  2
LAYER
 70
     9
  0
LAYER
  2
0
 70
     0
 62
     7
  6
CONTINUOUS
  0
ENDTAB
  0
TABLE
  2
STYLE
 70
     4
  0
STYLE
  2
STANDARD
 70
     0
 40
0.0
 41
1.0
 50
0.0
 71
     0
 42
2.5
  3
txt
  4

  0
STYLE
  2
INSCRIPTIONS
 70
     0
 40
0.0
 41
0.9
 50
0.0
 71
     0
 42
2.5
  3
txt
  4

  0
ENDTAB
  0
TABLE
  2
VIEW
 70
     1
  0
ENDTAB
  0
TABLE
  2
UCS
 70
     0
  0
ENDTAB
  0
TABLE
  2
APPID
 70
     7
  0
APPID
  2
ACAD
 70
     0
  0
APPID
  2
ACAD_PSEXT
 70
     0
  0
APPID
  2
ACAECLAYERSTANDARD
 70
     0
  0
APPID
  2
ACAD_NAV_VCDISPLAY
 70
     0
  0
APPID
  2
REVIT
 70
     0
  0
APPID
  2
ACAD_EXEMPT_FROM_CAD_STANDARDS
 70
     0
  0
APPID
  2
ACAD_MLEADERVER
 70
     0
  0
ENDTAB
  0
TABLE
  2
DIMSTYLE
 70
     1
  0
DIMSTYLE
  2
STANDARD
 70
     0
  3

  4

  5

  6

  7

 40
1.0
 41
0.18
 42
0.0625
 43
0.38
 44
0.18
 45
0.0
 46
0.0
 47
0.0
 48
0.0
140
0.18
141
0.09
142
0.0
143
25.399999999999999
144
1.0
145
0.0
146
1.0
147
0.09
 71
     0
 72
     0
 73
     1
 74
     1
 75
     0
 76
     0
 77
     0
 78
     0
170
     0
171
     2
172
     0
173
     0
174
     0
175
     0
176
     0
177
     0
178
     0
  0
ENDTAB
  0
ENDSEC
  0
SECTION
  2
BLOCKS
  0
BLOCK
  8
0
  2
$MODEL_SPACE
 70
     0
 10
0.0
 20
0.0
 30
0.0
  3
$MODEL_SPACE
  1

  0
ENDBLK
  5
D
  8
0
  0
BLOCK
 67
     1
  8
0
  2
$PAPER_SPACE
 70
     0
 10
0.0
 20
0.0
 30
0.0
  3
$PAPER_SPACE
  1

  0
ENDBLK
  5
190
 67
     1
  8
0
  0
BLOCK
  8
0
  2
*U2
 70
     1
 10
0.0
 20
0.0
 30
0.0
  3
*U2
  1

  0
TEXT
  5
226
  8
0
  6
CONTINUOUS
 10
-21.852895868648378
 20
-38.467386551602189
 30
0.0
 40
18.710999999999999
  1
75
 41
0.8
  7
INSCRIPTIONS
  0
ENDBLK
  5
228
  8
0
  0
BLOCK
  8
0
  2
*U3
 70
     1
 10
0.0
 20
0.0
 30
0.0
  3
*U3
  1

  0
TEXT
  5
239
  8
0
  6
CONTINUOUS
 10
1.5476377216855319
 20
-33.384839698745601
 30
0.0
 40
8.0999999999999996
  1
PP-MD
 41
0.6
  7
INSCRIPTIONS
  0
ENDBLK
  5
23B
  8
0
  0
ENDSEC
  0
SECTION
  2
ENTITIES
  0
LINE
  5
4B
  8
0
 10
0.0
 20
0.0
 30
0.0
 11
-0.0000000000009095
 21
-104.0
 31
0.0
  0
LINE
  5
4F
  8
0
 10
-40.0
 20
0.0
 30
0.0
 11
40.0
 21
0.0
 31
0.0
  0
ARC
  5
51
  8
0
 10
-0.0000000000009095
 20
-43.231358099087622
 30
0.0
 40
27.051738636491951
 50
239.34608426254999
 51
300.65391573745001
  0
ARC
  5
52
  8
0
 10
-0.0000000000009095
 20
-43.231358099087622
 30
0.0
 40
29.05173863649194
 50
239.34608426254999
 51
300.65391573745001
  0
ARC
  5
53
  8
0
 10
10.223402096423341
 20
-60.481119602350191
 30
0.0
 40
7.0
 50
300.65391573745001
 51
356.42366562497011
  0
ARC
  5
54
  8
0
 10
10.223402096423341
 20
-60.481119602350191
 30
0.0
 40
9.0
 50
300.65391573745001
 51
356.42366562497011
  0
ARC
  5
55
  8
0
 10
-10.22340209642516
 20
-60.481119602349281
 30
0.0
 40
7.0
 50
183.57633437497779
 51
239.34608426254999
  0
ARC
  5
56
  8
0
 10
-10.22340209642516
 20
-60.481119602349281
 30
0.0
 40
9.0
 50
183.57633437497779
 51
239.34608426254999
  0
LINE
  5
57
  8
0
 10
-17.20977014580512
 20
-60.917767605435067
 30
0.0
 11
-17.771070660101941
 21
-46.127519988050153
 31
0.0
  0
LINE
  5
58
  8
0
 10
-19.20587530277135
 20
-61.04252417774569
 30
0.0
 11
-19.940026394585399
 21
-41.77837190628906
 31
0.0
  0
LINE
  5
59
  8
0
 10
17.209770145803301
 20
-60.917767605435991
 30
0.0
 11
17.771070660098299
 21
-46.127519988050153
 31
0.0
  0
LINE
  5
5A
  8
0
 10
19.205875302769531
 20
-61.042524177746593
 30
0.0
 11
19.940026394585399
 21
-41.77837190628906
 31
0.0
  0
LINE
  5
5B
  8
0
 10
-19.940026394585399
 20
-41.77837190628906
 30
0.0
 11
-17.936123951852089
 21
-41.77837190628906
 31
0.0
  0
LINE
  5
5C
  8
0
 10
17.936123951848462
 20
-41.77837190628906
 30
0.0
 11
19.940026394585399
 21
-41.77837190628906
 31
0.0
  0
INSERT
  5
5D
  8
0
  6
CONTINUOUS
  2
*U2
 10
0.0
 20
0.0
 30
0.0
  0
POLYLINE
  5
60
  8
0
 66
     1
 10
0.0
 20
0.0
 30
0.0
 70
     1
  0
VERTEX
  5
229
  8
0
 10
-22.98393167454924
 20
-21.392794737584151
 30
0.0
  0
VERTEX
  5
22A
  8
0
 10
-30.141092311157081
 20
-21.392794737584151
 30
0.0
  0
VERTEX
  5
22B
  8
0
 10
-30.141092311157081
 20
-23.749869472027061
 30
0.0
  0
VERTEX
  5
22C
  8
0
 10
-22.98393167454924
 20
-23.749869472027061
 30
0.0
  0
SEQEND
  5
22D
  8
0
  0
POLYLINE
  5
61
  8
0
 66
     1
 10
0.0
 20
0.0
 30
0.0
 70
     1
  0
VERTEX
  5
22E
  8
0
 10
-22.378181421268891
 20
-37.993469240701423
 30
0.0
  0
VERTEX
  5
22F
  8
0
 10
-26.63684403848038
 20
-37.993469240700513
 30
0.0
  0
VERTEX
  5
230
  8
0
 10
-26.63684403848038
 20
-36.852261700301817
 30
0.0
  0
VERTEX
  5
231
  8
0
 10
-22.378181421267978
 20
-36.852261700301817
 30
0.0
  0
SEQEND
  5
232
  8
0
  0
LINE
  5
62
  8
0
 10
-22.728100430414091
 20
-30.844975633868671
 30
0.0
 11
-28.452453732553298
 21
-30.844975633868671
 31
0.0
  0
POLYLINE
  5
63
  8
0
 66
     1
 10
0.0
 20
0.0
 30
0.0
 70
     1
  0
VERTEX
  5
233
  8
0
 10
-22.728100430414091
 20
-30.844975633868671
 30
0.0
  0
VERTEX
  5
234
  8
0
 10
-28.884588191850529
 20
-30.844975633868671
 30
0.0
  0
VERTEX
  5
235
  8
0
 10
-28.884588191851439
 20
-29.283505300919391
 30
0.0
  0
VERTEX
  5
236
  8
0
 10
-22.728100430414091
 20
-29.283505300918481
 30
0.0
  0
SEQEND
  5
237
  8
0
  0
INSERT
  5
64
  8
0
  6
CONTINUOUS
  2
*U3
 10
0.0
 20
0.0
 30
0.0
  0
POLYLINE
  5
65
  8
0
 66
     1
 10
0.0
 20
0.0
 30
0.0
 70
     1
  0
VERTEX
  5
23C
  8
0
 10
22.983931674544689
 20
-21.392794737583252
 30
0.0
  0
VERTEX
  5
23D
  8
0
 10
30.14109231115162
 20
-21.392794737582339
 30
0.0
  0
VERTEX
  5
23E
  8
0
 10
30.14109231115162
 20
-23.749869472025239
 30
0.0
  0
VERTEX
  5
23F
  8
0
 10
22.983931674544689
 20
-23.749869472026148
 30
0.0
  0
SEQEND
  5
240
  8
0
  0
POLYLINE
  5
66
  8
0
 66
     1
 10
0.0
 20
0.0
 30
0.0
 70
     1
  0
VERTEX
  5
241
  8
0
 10
22.37818142126434
 20
-37.993469240700513
 30
0.0
  0
VERTEX
  5
242
  8
0
 10
26.636844038476742
 20
-37.993469240699604
 30
0.0
  0
VERTEX
  5
243
  8
0
 10
26.636844038476742
 20
-36.852261700300012
 30
0.0
  0
VERTEX
  5
244
  8
0
 10
22.37818142126434
 20
-36.852261700300012
 30
0.0
  0
SEQEND
  5
245
  8
0
  0
LINE
  5
67
  8
0
 10
22.72810043040954
 20
-30.844975633867762
 30
0.0
 11
28.452453732548751
 21
-30.844975633867762
 31
0.0
  0
POLYLINE
  5
68
  8
0
 66
     1
 10
0.0
 20
0.0
 30
0.0
 70
     1
  0
VERTEX
  5
246
  8
0
 10
22.72810043040954
 20
-30.844975633867762
 30
0.0
  0
VERTEX
  5
247
  8
0
 10
28.884588191846891
 20
-30.844975633867762
 30
0.0
  0
VERTEX
  5
248
  8
0
 10
28.884588191846891
 20
-29.283505300917572
 30
0.0
  0
VERTEX
  5
249
  8
0
 10
22.72810043040954
 20
-29.283505300917572
 30
0.0
  0
SEQEND
  5
24A
  8
0
  0
LINE
  5
69
  8
0
 10
-19.940026394585399
 20
-41.77837190628906
 30
0.0
 11
19.940026394585399
 21
-41.77837190628906
 31
0.0
  0
LINE
  5
6A
  8
0
 10
-17.771070660101941
 20
-46.127519988050153
 30
0.0
 11
17.771070660098299
 21
-46.127519988050153
 31
0.0
  0
LINE
  5
6B
  8
0
 10
37.699999999997999
 20
-16.274089938300669
 30
0.0
 11
-37.700000000001637
 21
-16.274089938300669
 31
0.0
  0
LINE
  5
6C
  8
0
 10
-45.000000000000909
 20
-16.274089938300669
 30
0.0
 11
44.999999999997272
 21
-16.274089938300669
 31
0.0
  0
LINE
  5
6D
  8
0
 10
-40.000000000000909
 20
0.0
 30
0.0
 11
-40.000000000000909
 21
-1.5
 31
0.0
  0
LINE
  5
6E
  8
0
 10
-39.999999999999091
 20
-13.93425172568277
 30
0.0
 11
-40.0
 21
-14.274089938300669
 31
0.0
  0
LINE
  5
6F
  8
0
 10
40.000000000000909
 20
0.0
 30
0.0
 11
40.000000000000909
 21
-1.5
 31
0.0
  0
LINE
  5
70
  8
0
 10
39.999999999999091
 20
-13.93425172568277
 30
0.0
 11
40.0
 21
-14.274089938300669
 31
0.0
  0
LINE
  5
71
  8
0
 10
40.0
 20
-18.299766489235481
 30
0.0
 11
40.0
 21
-85.700233510751787
 31
0.0
  0
LINE
  5
72
  8
0
 10
-45.0
 20
-14.274089938300669
 30
0.0
 11
44.999999999999091
 21
-14.274089938300669
 31
0.0
  0
LINE
  5
73
  8
0
 10
-45.000000000000909
 20
-14.274089938300669
 30
0.0
 11
-45.000000000001819
 21
-16.274089938300669
 31
0.0
  0
LINE
  5
74
  8
0
 10
44.999999999999091
 20
-14.274089938300669
 30
0.0
 11
44.999999999998167
 21
-16.274089938300669
 31
0.0
  0
LINE
  5
75
  8
0
 10
-43.876028035110721
 20
-1.5
 30
0.0
 11
0.0
 21
-1.5
 31
0.0
  0
LINE
  5
76
  8
0
 10
0.0
 20
-13.93425172568277
 30
0.0
 11
-45.599321298888754
 21
-13.93425172568277
 31
0.0
  0
LINE
  5
77
  8
0
 10
-45.599321298888754
 20
-13.93425172568277
 30
0.0
 11
-43.876028035110721
 21
-1.5
 31
0.0
  0
LINE
  5
78
  8
0
 10
43.876028035110721
 20
-1.5
 30
0.0
 11
0.0
 21
-1.5
 31
0.0
  0
LINE
  5
79
  8
0
 10
0.0
 20
-13.93425172568277
 30
0.0
 11
45.599321298888754
 21
-13.93425172568277
 31
0.0
  0
LINE
  5
7A
  8
0
 10
45.599321298888754
 20
-13.93425172568277
 30
0.0
 11
43.876028035110721
 21
-1.5
 31
0.0
  0
LINE
  5
7B
  8
0
 10
-39.999999999999091
 20
0.0
 30
0.0
 11
-40.000000000000909
 21
-1.5
 31
0.0
  0
LINE
  5
7C
  8
0
 10
-40.0
 20
-18.299766489231839
 30
0.0
 11
-39.999999999993641
 21
-85.700233510779071
 31
0.0
  0
LINE
  5
7D
  8
0
 10
-40.0
 20
0.0
 30
0.0
 11
40.0
 21
0.0
 31
0.0
  0
ARC
  5
7E
  8
0
 10
42.025676550934797
 20
-18.299766489235481
 30
0.0
 40
2.025676550934576
 50
90.0
 51
180.0
  0
ARC
  5
7F
  8
0
 10
-42.025676550936623
 20
-18.299766489231839
 30
0.0
 40
2.025676550934576
 50
0.0
 51
90.0
  0
LINE
  5
80
  8
0
 10
-0.999999999998181
 20
-1.5
 30
0.0
 11
-0.9999999999990905
 21
-13.93425172568277
 31
0.0
  0
LINE
  5
82
  8
0
 10
1.0
 20
-1.5
 30
0.0
 11
1.0
 21
-13.93425172568277
 31
0.0
  0
LINE
  5
83
  8
0
 10
-11.561255671073919
 20
-1.5
 30
0.0
 11
-11.999999999999091
 21
-13.93425172568277
 31
0.0
  0
LINE
  5
84
  8
0
 10
11.561255671073919
 20
-1.5
 30
0.0
 11
11.999999999999091
 21
-13.93425172568277
 31
0.0
  0
LINE
  5
85
  8
0
 10
-32.114314359387208
 20
-1.5
 30
0.0
 11
-32.999999999999091
 21
-13.93425172568277
 31
0.0
  0
LINE
  5
86
  8
0
 10
-33.739249474383541
 20
-1.5
 30
0.0
 11
-34.624935114995417
 21
-13.93425172568277
 31
0.0
  0
LINE
  5
87
  8
0
 10
32.114314359387208
 20
-1.5
 30
0.0
 11
32.999999999999091
 21
-13.93425172568277
 31
0.0
  0
LINE
  5
88
  8
0
 10
33.739249474383541
 20
-1.5
 30
0.0
 11
34.624935114995417
 21
-13.93425172568277
 31
0.0
  0
LINE
  5
89
  8
0
 10
37.700000000007101
 20
-87.72591006168841
 30
0.0
 11
-37.699999999992542
 21
-87.725910061708404
 31
0.0
  0
LINE
  5
8A
  8
0
 10
-44.999999999991807
 20
-87.725910061711147
 30
0.0
 11
45.000000000006359
 21
-87.725910061685681
 31
0.0
  0
LINE
  5
8B
  8
0
 10
-39.999999999987267
 20
-104.00000000001
 30
0.0
 11
-39.999999999988177
 21
-102.50000000001
 31
0.0
  0
LINE
  5
8C
  8
0
 10
-39.999999999989093
 20
-90.065748274327234
 30
0.0
 11
-39.999999999990003
 21
-89.725910061709328
 31
0.0
  0
LINE
  5
8D
  8
0
 10
40.000000000014552
 20
-103.99999999998811
 30
0.0
 11
40.000000000013642
 21
-102.4999999999882
 31
0.0
  0
LINE
  5
8E
  8
0
 10
40.000000000009088
 20
-90.065748274305406
 30
0.0
 11
40.000000000009997
 21
-89.7259100616875
 31
0.0
  0
LINE
  5
8F
  8
0
 10
-44.999999999989988
 20
-89.725910061711133
 30
0.0
 11
45.000000000009088
 21
-89.725910061685695
 31
0.0
  0
LINE
  5
90
  8
0
 10
-44.999999999990898
 20
-89.725910061711133
 30
0.0
 11
-44.999999999992717
 21
-87.725910061711147
 31
0.0
  0
LINE
  5
91
  8
0
 10
45.000000000009088
 20
-89.725910061685695
 30
0.0
 11
45.000000000007269
 21
-87.725910061685681
 31
0.0
  0
LINE
  5
92
  8
0
 10
-43.876028035097988
 20
-102.5000000000109
 30
0.0
 11
0.0000000000127329
 21
-102.4999999999991
 31
0.0
  0
LINE
  5
93
  8
0
 10
0.0000000000100044
 20
-90.065748274316334
 30
0.0
 11
-45.599321298878749
 21
-90.065748274329039
 31
0.0
  0
LINE
  5
94
  8
0
 10
-45.599321298878749
 20
-90.065748274329039
 30
0.0
 11
-43.876028035097988
 21
-102.5000000000109
 31
0.0
  0
LINE
  5
95
  8
0
 10
43.876028035123447
 20
-102.4999999999872
 30
0.0
 11
0.0000000000127329
 21
-102.4999999999991
 31
0.0
  0
LINE
  5
96
  8
0
 10
0.0000000000100044
 20
-90.065748274316334
 30
0.0
 11
45.599321298898751
 21
-90.065748274303587
 31
0.0
  0
LINE
  5
97
  8
0
 10
45.599321298898751
 20
-90.065748274303587
 30
0.0
 11
43.876028035123447
 21
-102.4999999999872
 31
0.0
  0
LINE
  5
98
  8
0
 10
-39.999999999985448
 20
-104.00000000001
 30
0.0
 11
-39.999999999988177
 21
-102.50000000001
 31
0.0
  0
LINE
  5
99
  8
0
 10
-39.999999999986358
 20
-104.00000000001
 30
0.0
 11
40.000000000013642
 21
-103.99999999998811
 31
0.0
  0
ARC
  5
9A
  8
0
 10
42.025676550942983
 20
-85.700233510751787
 30
0.0
 40
2.025676550934576
 50
180.0
 51
270.0
  0
ARC
  5
9B
  8
0
 10
-42.025676550928438
 20
-85.700233510779071
 30
0.0
 40
2.025676550934576
 50
270.0
 51
0.0
  0
LINE
  5
9C
  8
0
 10
-0.999999999985448
 20
-102.4999999999991
 30
0.0
 11
-0.999999999989086
 21
-90.065748274316334
 31
0.0
  0
LINE
  5
9D
  8
0
 10
1.000000000012732
 20
-102.4999999999991
 30
0.0
 11
1.000000000010004
 21
-90.065748274316334
 31
0.0
  0
LINE
  5
9E
  8
0
 10
-11.56125567106119
 20
-102.5000000000027
 30
0.0
 11
-11.999999999989081
 21
-90.065748274319944
 31
0.0
  0
LINE
  5
9F
  8
0
 10
11.56125567108665
 20
-102.49999999999631
 30
0.0
 11
12.00000000000909
 21
-90.065748274312682
 31
0.0
  0
LINE
  5
A0
  8
0
 10
-32.114314359374482
 20
-102.5000000000082
 30
0.0
 11
-32.999999999989093
 21
-90.065748274325415
 31
0.0
  0
LINE
  5
A1
  8
0
 10
-33.739249474370808
 20
-102.5000000000082
 30
0.0
 11
-34.624935114985419
 21
-90.065748274325415
 31
0.0
  0
LINE
  5
A2
  8
0
 10
32.114314359399941
 20
-102.49999999999
 30
0.0
 11
33.000000000009102
 21
-90.065748274307225
 31
0.0
  0
LINE
  5
A3
  8
0
 10
33.739249474396281
 20
-102.49999999999
 30
0.0
 11
34.624935115005428
 21
-90.065748274307225
 31
0.0
  0
VIEWPORT
  5
194
 67
     1
  8
0
  6
CONTINUOUS
 10
128.5
 20
97.5
 30
0.0
 40
348.79216438356173
 41
222.18000000000001
 68
     1
 69
     1
1001
ACAD
1000
MVIEW
1002
{
1070
    16
1010
0.0
1020
0.0
1030
0.0
1010
0.0
1020
0.0
1030
1.0
1040
0.0
1040
222.18000000000001
1040
128.5
1040
97.5
1040
50.0
1040
0.0
1040
0.0
1070
     0
1070
  1000
1070
     1
1070
     1
1070
     0
1070
     0
1070
     0
1070
     0
1040
0.0
1040
0.0
1040
0.0
1040
10.0
1040
10.0
1040
10.0
1040
10.0
1070
     0
1002
{
1002
}
1002
}
  0
VIEWPORT
  5
198
 67
     1
  8
0
  6
CONTINUOUS
 10
128.5
 20
97.5
 30
0.0
 40
205.59999999999999
 41
156.0
 68
     2
 69
     2
1001
ACAD
1000
MVIEW
1002
{
1070
    16
1010
30714.317967474461
1020
7339.7553224022467
1030
0.0
1010
-38962.971254248441
1020
-38962.97125424847
1030
38962.97125424847
1040
0.0000000000000005
1040
105.65903078309429
1040
-16491.54220097862
1040
-15556.73927688285
1040
50.0
1040
0.0
1040
0.0
1070
     0
1070
  1000
1070
     1
1070
     3
1070
     0
1070
     0
1070
     0
1070
     0
1040
0.0
1040
0.0
1040
0.0
1040
10.0
1040
10.0
1040
10.0
1040
10.0
1070
     0
1002
{
1002
}
1002
}
  0
ENDSEC
  0
EOF
