  0
SECTION
  2
HEADER
  9
$ACADVER
  1
AC1009
  9
$INSBASE
 10
0.0
 20
0.0
 30
0.0
  9
$EXTMIN
 10
-32.799321298888572
 20
-97.000000000003652
 30
0.0
  9
$EXTMAX
 10
32.799321298887662
 20
0.0
 30
0.0
  9
$LIMMIN
 10
0.0
 20
0.0
  9
$LIMMAX
 10
420.0
 20
297.0
  9
$ORTHOMODE
 70
     0
  9
$REGENMODE
 70
     1
  9
$FILLMODE
 70
     1
  9
$QTEXTMODE
 70
     0
  9
$MIRRTEXT
 70
     0
  9
$DRAGMODE
 70
     2
  9
$LTSCALE
 40
1.0
  9
$OSMODE
 70
   127
  9
$ATTMODE
 70
     1
  9
$TEXTSIZE
 40
2.5
  9
$TRACEWID
 40
1.0
  9
$TEXTSTYLE
  7
STANDARD
  9
$CLAYER
  8
0
  9
$CELTYPE
  6
CONTINUOUS
  9
$CECOLOR
 62
   256
  9
$DIMSCALE
 40
1.0
  9
$DIMASZ
 40
2.5
  9
$DIMEXO
 40
0.625
  9
$DIMDLI
 40
3.75
  9
$DIMRND
 40
0.0
  9
$DIMDLE
 40
0.0
  9
$DIMEXE
 40
1.25
  9
$DIMTP
 40
0.0
  9
$DIMTM
 40
0.0
  9
$DIMTXT
 40
2.5
  9
$DIMCEN
 40
2.5
  9
$DIMTSZ
 40
0.0
  9
$DIMTOL
 70
     0
  9
$DIMLIM
 70
     0
  9
$DIMTIH
 70
     0
  9
$DIMTOH
 70
     0
  9
$DIMSE1
 70
     0
  9
$DIMSE2
 70
     0
  9
$DIMTAD
 70
     1
  9
$DIMZIN
 70
     8
  9
$DIMBLK
  1

  9
$DIMASO
 70
     1
  9
$DIMSHO
 70
     1
  9
$DIMPOST
  1

  9
$DIMAPOST
  1

  9
$DIMALT
 70
     0
  9
$DIMALTD
 70
     3
  9
$DIMALTF
 40
0.03937007874016
  9
$DIMLFAC
 40
1.0
  9
$DIMTOFL
 70
     1
  9
$DIMTVP
 40
0.0
  9
$DIMTIX
 70
     0
  9
$DIMSOXD
 70
     0
  9
$DIMSAH
 70
     0
  9
$DIMBLK1
  1

  9
$DIMBLK2
  1

  9
$DIMSTYLE
  2
STANDARD
  9
$DIMCLRD
 70
     0
  9
$DIMCLRE
 70
     0
  9
$DIMCLRT
 70
     0
  9
$DIMTFAC
 40
1.0
  9
$DIMGAP
 40
0.625
  9
$LUNITS
 70
     2
  9
$LUPREC
 70
     4
  9
$SKETCHINC
 40
1.0
  9
$FILLETRAD
 40
3.0
  9
$AUNITS
 70
     0
  9
$AUPREC
 70
     0
  9
$MENU
  1
.
  9
$ELEVATION
 40
0.0
  9
$PELEVATION
 40
0.0
  9
$THICKNESS
 40
0.0
  9
$LIMCHECK
 70
     0
  9
$BLIPMODE
 70
     0
  9
$CHAMFERA
 40
0.0
  9
$CHAMFERB
 40
0.0
  9
$SKPOLY
 70
     0
  9
$TDCREATE
 40
2455559.2317578131
  9
$TDUPDATE
 40
2457377.7176393061
  9
$TDINDWG
 40
2.920941794
  9
$TDUSRTIMER
 40
2.9209378125000001
  9
$USRTIMER
 70
     1
  9
$ANGBASE
 50
0.0
  9
$ANGDIR
 70
     0
  9
$PDMODE
 70
     0
  9
$PDSIZE
 40
0.0
  9
$PLINEWID
 40
0.0
  9
$COORDS
 70
     2
  9
$SPLFRAME
 70
     0
  9
$SPLINETYPE
 70
     6
  9
$SPLINESEGS
 70
     8
  9
$ATTDIA
 70
     1
  9
$ATTREQ
 70
     1
  9
$HANDLING
 70
     1
  9
$HANDSEED
  5
28F
  9
$SURFTAB1
 70
     6
  9
$SURFTAB2
 70
     6
  9
$SURFTYPE
 70
     6
  9
$SURFU
 70
     6
  9
$SURFV
 70
     6
  9
$UCSNAME
  2

  9
$UCSORG
 10
0.0
 20
0.0
 30
0.0
  9
$UCSXDIR
 10
1.0
 20
0.0
 30
0.0
  9
$UCSYDIR
 10
0.0
 20
1.0
 30
0.0
  9
$PUCSNAME
  2

  9
$PUCSORG
 10
0.0
 20
0.0
 30
0.0
  9
$PUCSXDIR
 10
1.0
 20
0.0
 30
0.0
  9
$PUCSYDIR
 10
0.0
 20
1.0
 30
0.0
  9
$USERI1
 70
     0
  9
$USERI2
 70
     0
  9
$USERI3
 70
     0
  9
$USERI4
 70
     0
  9
$USERI5
 70
     0
  9
$USERR1
 40
0.0
  9
$USERR2
 40
0.0
  9
$USERR3
 40
0.0
  9
$USERR4
 40
0.0
  9
$USERR5
 40
0.0
  9
$WORLDVIEW
 70
     1
  9
$SHADEDGE
 70
     3
  9
$SHADEDIF
 70
    70
  9
$TILEMODE
 70
     1
  9
$MAXACTVP
 70
    64
  9
$PLIMCHECK
 70
     0
  9
$PEXTMIN
 10
25.699999999999989
 20
19.5
 30
0.0
  9
$PEXTMAX
 10
231.30000000000001
 20
175.5
 30
0.0
  9
$PLIMMIN
 10
-20.0
 20
-7.5
  9
$PLIMMAX
 10
277.0
 20
202.5
  9
$UNITMODE
 70
     0
  9
$VISRETAIN
 70
     1
  9
$PLINEGEN
 70
     0
  9
$PSLTSCALE
 70
     1
  0
ENDSEC
  0
SECTION
  2
TABLES
  0
TABLE
  2
VPORT
 70
     1
  0
VPORT
  2
*ACTIVE
 70
     0
 10
0.0
 20
0.0
 11
1.0
 21
1.0
 12
16458.127776663969
 22
5824.9361560382022
 13
0.0
 23
0.0
 14
10.0
 24
10.0
 15
10.0
 25
10.0
 16
-38962.971254248441
 26
-38962.97125424847
 36
38962.97125424847
 17
30714.317967474461
 27
7339.7553224022467
 37
0.0
 40
45085.451174768772
 41
1.56986301369863
 42
50.0
 43
0.0
 44
0.0
 50
0.0
 51
0.0000000000000313
 71
     0
 72
  1000
 73
     1
 74
     3
 75
     0
 76
     0
 77
     0
 78
     0
  0
ENDTAB
  0
TABLE
  2
LTYPE
 70
     3
  0
LTYPE
  2
CONTINUOUS
 70
     0
  3
Solid line
 72
    65
 73
     0
 40
0.0
  0
ENDTAB
  0
TABLE
  2
LAYER
 70
     9
  0
LAYER
  2
0
 70
     0
 62
     7
  6
CONTINUOUS
  0
ENDTAB
  0
TABLE
  2
STYLE
 70
     4
  0
STYLE
  2
STANDARD
 70
     0
 40
0.0
 41
1.0
 50
0.0
 71
     0
 42
2.5
  3
txt
  4

  0
STYLE
  2
INSCRIPTIONS
 70
     0
 40
0.0
 41
0.9
 50
0.0
 71
     0
 42
2.5
  3
txt
  4

  0
ENDTAB
  0
TABLE
  2
VIEW
 70
     1
  0
ENDTAB
  0
TABLE
  2
UCS
 70
     0
  0
ENDTAB
  0
TABLE
  2
APPID
 70
     8
  0
APPID
  2
ACAD
 70
     0
  0
APPID
  2
ACAD_PSEXT
 70
     0
  0
APPID
  2
ACAECLAYERSTANDARD
 70
     0
  0
APPID
  2
ACDBBLOCKREPETAG
 70
     0
  0
APPID
  2
ACAD_NAV_VCDISPLAY
 70
     0
  0
APPID
  2
REVIT
 70
     0
  0
APPID
  2
ACAD_EXEMPT_FROM_CAD_STANDARDS
 70
     0
  0
APPID
  2
ACAD_MLEADERVER
 70
     0
  0
ENDTAB
  0
TABLE
  2
DIMSTYLE
 70
     1
  0
DIMSTYLE
  2
STANDARD
 70
     0
  3

  4

  5

  6

  7

 40
1.0
 41
0.18
 42
0.0625
 43
0.38
 44
0.18
 45
0.0
 46
0.0
 47
0.0
 48
0.0
140
0.18
141
0.09
142
0.0
143
25.399999999999999
144
1.0
145
0.0
146
1.0
147
0.09
 71
     0
 72
     0
 73
     1
 74
     1
 75
     0
 76
     0
 77
     0
 78
     0
170
     0
171
     2
172
     0
173
     0
174
     0
175
     0
176
     0
177
     0
178
     0
  0
ENDTAB
  0
ENDSEC
  0
SECTION
  2
BLOCKS
  0
BLOCK
  8
0
  2
$MODEL_SPACE
 70
     0
 10
0.0
 20
0.0
 30
0.0
  3
$MODEL_SPACE
  1

  0
ENDBLK
  5
D
  8
0
  0
BLOCK
 67
     1
  8
0
  2
$PAPER_SPACE
 70
     0
 10
0.0
 20
0.0
 30
0.0
  3
$PAPER_SPACE
  1

  0
ENDBLK
  5
19B
 67
     1
  8
0
  0
BLOCK
  8
0
  2
*U2
 70
     1
 10
0.0
 20
0.0
 30
0.0
  3
*U2
  1

  0
TEXT
  5
231
  8
0
  6
CONTINUOUS
 10
-15.61654707468187
 20
-33.795602240040708
 30
0.0
 40
14.9688
  1
50
 41
0.8
  7
INSCRIPTIONS
  0
ENDBLK
  5
233
  8
0
  0
BLOCK
  8
0
  2
*U3
 70
     1
 10
0.0
 20
0.0
 30
0.0
  3
*U3
  1

  0
TEXT
  5
244
  8
0
  6
CONTINUOUS
 10
2.9983511961518161
 20
-30.018881067245271
 30
0.0
 40
6.5
  1
PP-MD
 41
0.5
  7
INSCRIPTIONS
  0
ENDBLK
  5
246
  8
0
  0
ENDSEC
  0
SECTION
  2
ENTITIES
  0
LINE
  5
4B
  8
0
 10
-27.199999999998909
 20
0.0
 30
0.0
 11
27.199999999998909
 21
0.0
 31
0.0
1001
ACDBBLOCKREPETAG
1070
     1
1071
        0
1005
4B
  0
LINE
  5
4F
  8
0
 10
-0.0000000000009095
 20
0.0
 30
0.0
 11
0.0
 21
-97.000000000003652
 31
0.0
1001
ACDBBLOCKREPETAG
1070
     1
1071
        1
1005
4F
  0
INSERT
  5
52
  8
0
  6
CONTINUOUS
  2
*U2
 10
0.0
 20
0.0
 30
0.0
  0
POLYLINE
  5
55
  8
0
 66
     1
 10
0.0
 20
0.0
 30
0.0
 70
     1
1001
ACDBBLOCKREPETAG
1070
     1
1071
        3
1005
55
  0
VERTEX
  5
234
  8
0
 10
-16.337208419651692
 20
-18.792282939764839
 30
0.0
  0
VERTEX
  5
235
  8
0
 10
-23.49436905625862
 20
-18.792282939764839
 30
0.0
  0
VERTEX
  5
236
  8
0
 10
-23.49436905625862
 20
-21.149357674207749
 30
0.0
  0
VERTEX
  5
237
  8
0
 10
-16.337208419650779
 20
-21.149357674207749
 30
0.0
  0
SEQEND
  5
238
  8
0
  0
POLYLINE
  5
56
  8
0
 66
     1
 10
0.0
 20
0.0
 30
0.0
 70
     1
1001
ACDBBLOCKREPETAG
1070
     1
1071
        4
1005
56
  0
VERTEX
  5
239
  8
0
 10
-15.73145816637043
 20
-35.392957442882107
 30
0.0
  0
VERTEX
  5
23A
  8
0
 10
-19.990120783582821
 20
-35.392957442881197
 30
0.0
  0
VERTEX
  5
23B
  8
0
 10
-19.990120783582821
 20
-34.251749902481613
 30
0.0
  0
VERTEX
  5
23C
  8
0
 10
-15.73145816637043
 20
-34.251749902481613
 30
0.0
  0
SEQEND
  5
23D
  8
0
  0
LINE
  5
57
  8
0
 10
-16.08137717551563
 20
-28.244463836049359
 30
0.0
 11
-21.80573047765483
 21
-28.244463836049359
 31
0.0
1001
ACDBBLOCKREPETAG
1070
     1
1071
        5
1005
57
  0
POLYLINE
  5
58
  8
0
 66
     1
 10
0.0
 20
0.0
 30
0.0
 70
     1
1001
ACDBBLOCKREPETAG
1070
     1
1071
        6
1005
58
  0
VERTEX
  5
23E
  8
0
 10
-16.08137717551563
 20
-28.244463836049359
 30
0.0
  0
VERTEX
  5
23F
  8
0
 10
-22.237864936952981
 20
-28.244463836049359
 30
0.0
  0
VERTEX
  5
240
  8
0
 10
-22.237864936952981
 20
-26.682993503100079
 30
0.0
  0
VERTEX
  5
241
  8
0
 10
-16.08137717551563
 20
-26.682993503099169
 30
0.0
  0
SEQEND
  5
242
  8
0
  0
ARC
  5
59
  8
0
 10
0.0
 20
-41.033451984036219
 30
0.0
 40
18.93621704554436
 50
239.34608426254999
 51
300.65391573745001
1001
ACDBBLOCKREPETAG
1070
     1
1071
        7
1005
59
  0
ARC
  5
5A
  8
0
 10
0.0
 20
-41.033451984036219
 30
0.0
 40
20.93621704554343
 50
239.34608426254999
 51
300.65391573745001
1001
ACDBBLOCKREPETAG
1070
     1
1071
        8
1005
5A
  0
ARC
  5
5B
  8
0
 10
7.1563814674964297
 20
-53.108285036320012
 30
0.0
 40
4.8999999999999986
 50
300.65391573745001
 51
356.42366562497011
1001
ACDBBLOCKREPETAG
1070
     1
1071
        9
1005
5B
  0
ARC
  5
5C
  8
0
 10
7.1563814674964297
 20
-53.108285036320012
 30
0.0
 40
6.8999999999990704
 50
300.65391573745001
 51
356.42366562497011
1001
ACDBBLOCKREPETAG
1070
     1
1071
       10
1005
5C
  0
ARC
  5
5D
  8
0
 10
-7.1563814674982487
 20
-53.108285036319103
 30
0.0
 40
4.8999999999999986
 50
183.57633437497779
 51
239.34608426254999
1001
ACDBBLOCKREPETAG
1070
     1
1071
       11
1005
5D
  0
ARC
  5
5E
  8
0
 10
-7.1563814674982487
 20
-53.108285036319103
 30
0.0
 40
6.8999999999990704
 50
183.57633437497779
 51
239.34608426254999
1001
ACDBBLOCKREPETAG
1070
     1
1071
       12
1005
5E
  0
LINE
  5
5F
  8
0
 10
-12.046839102064039
 20
-53.413938638479522
 30
0.0
 11
-12.479669170796109
 21
-41.490345251942919
 31
0.0
1001
ACDBBLOCKREPETAG
1070
     1
1071
       13
1005
5F
  0
LINE
  5
60
  8
0
 10
-14.04294425902844
 20
-53.538695210789228
 30
0.0
 11
-14.628799547170271
 21
-37.217585626327491
 31
0.0
1001
ACDBBLOCKREPETAG
1070
     1
1071
       14
1005
60
  0
LINE
  5
61
  8
0
 10
12.04683910206222
 20
-53.413938638480431
 30
0.0
 11
12.47966917079429
 21
-41.490345251942919
 31
0.0
1001
ACDBBLOCKREPETAG
1070
     1
1071
       15
1005
61
  0
LINE
  5
62
  8
0
 10
14.042944259026619
 20
-53.53869521079104
 30
0.0
 11
14.62879954716845
 21
-37.217585626327491
 31
0.0
1001
ACDBBLOCKREPETAG
1070
     1
1071
       16
1005
62
  0
LINE
  5
63
  8
0
 10
-14.628799547170271
 20
-37.217585626327491
 30
0.0
 11
14.62879954716845
 21
-37.217585626327491
 31
0.0
1001
ACDBBLOCKREPETAG
1070
     1
1071
       17
1005
63
  0
INSERT
  5
64
  8
0
  6
CONTINUOUS
  2
*U3
 10
0.0
 20
0.0
 30
0.0
  0
POLYLINE
  5
65
  8
0
 66
     1
 10
0.0
 20
0.0
 30
0.0
 70
     1
1001
ACDBBLOCKREPETAG
1070
     1
1071
       19
1005
65
  0
VERTEX
  5
247
  8
0
 10
16.337208419649869
 20
-18.792282939764839
 30
0.0
  0
VERTEX
  5
248
  8
0
 10
23.494369056256801
 20
-18.792282939764839
 30
0.0
  0
VERTEX
  5
249
  8
0
 10
23.494369056256801
 20
-21.149357674207749
 30
0.0
  0
VERTEX
  5
24A
  8
0
 10
16.337208419649869
 20
-21.149357674207749
 30
0.0
  0
SEQEND
  5
24B
  8
0
  0
POLYLINE
  5
66
  8
0
 66
     1
 10
0.0
 20
0.0
 30
0.0
 70
     1
1001
ACDBBLOCKREPETAG
1070
     1
1071
       20
1005
66
  0
VERTEX
  5
24C
  8
0
 10
15.731458166368609
 20
-35.392957442882107
 30
0.0
  0
VERTEX
  5
24D
  8
0
 10
19.990120783580998
 20
-35.392957442881197
 30
0.0
  0
VERTEX
  5
24E
  8
0
 10
19.990120783580998
 20
-34.251749902481613
 30
0.0
  0
VERTEX
  5
24F
  8
0
 10
15.731458166368609
 20
-34.251749902481613
 30
0.0
  0
SEQEND
  5
250
  8
0
  0
LINE
  5
67
  8
0
 10
16.081377175513811
 20
-28.244463836049359
 30
0.0
 11
21.805730477653011
 21
-28.244463836049359
 31
0.0
1001
ACDBBLOCKREPETAG
1070
     1
1071
       21
1005
67
  0
POLYLINE
  5
68
  8
0
 66
     1
 10
0.0
 20
0.0
 30
0.0
 70
     1
1001
ACDBBLOCKREPETAG
1070
     1
1071
       22
1005
68
  0
VERTEX
  5
251
  8
0
 10
16.081377175513811
 20
-28.244463836049359
 30
0.0
  0
VERTEX
  5
252
  8
0
 10
22.237864936951151
 20
-28.244463836049359
 30
0.0
  0
VERTEX
  5
253
  8
0
 10
22.237864936951151
 20
-26.682993503100079
 30
0.0
  0
VERTEX
  5
254
  8
0
 10
16.081377175513811
 20
-26.682993503099169
 30
0.0
  0
SEQEND
  5
255
  8
0
  0
LINE
  5
69
  8
0
 10
-12.479669170796109
 20
-41.490345251942919
 30
0.0
 11
12.47966917079429
 21
-41.490345251942919
 31
0.0
1001
ACDBBLOCKREPETAG
1070
     1
1071
       23
1005
69
  0
ARC
  5
6A
  8
0
 10
7.1563814674964297
 20
-53.108285036320012
 30
0.0
 40
4.8999999999999986
 50
300.65391573745001
 51
356.42366562502212
1001
ACDBBLOCKREPETAG
1070
     1
1071
       24
1005
6A
  0
LINE
  5
6B
  8
0
 10
12.271473656236591
 20
-49.819785771706847
 30
0.0
 11
6.5488062594986332
 21
-49.819785771706847
 31
0.0
1001
ACDBBLOCKREPETAG
1070
     1
1071
       25
1005
6B
  0
LINE
  5
6C
  8
0
 10
12.333973656236591
 20
-48.819785771705938
 30
0.0
 11
6.5488062594986332
 21
-48.819785771705938
 31
0.0
1001
ACDBBLOCKREPETAG
1070
     1
1071
       26
1005
6C
  0
LINE
  5
6D
  8
0
 10
5.6056590063226386
 20
-50.487410593893401
 30
0.0
 11
2.314023778405498
 21
-59.827749256052812
 31
0.0
1001
ACDBBLOCKREPETAG
1070
     1
1071
       27
1005
6D
  0
LINE
  5
6E
  8
0
 10
4.6625117531457363
 20
-50.155035416080871
 30
0.0
 11
1.2175382252680711
 21
-59.930486583834863
 31
0.0
1001
ACDBBLOCKREPETAG
1070
     1
1071
       28
1005
6E
  0
ARC
  5
6F
  8
0
 10
6.5488062594986332
 20
-50.819785771705938
 30
0.0
 40
2.0
 50
90.0
 51
160.58699732409269
1001
ACDBBLOCKREPETAG
1070
     1
1071
       29
1005
6F
  0
ARC
  5
70
  8
0
 10
6.5488062594986332
 20
-50.819785771705938
 30
0.0
 40
0.9999999999998863
 50
90.0
 51
160.58699732409269
1001
ACDBBLOCKREPETAG
1070
     1
1071
       30
1005
70
  0
LINE
  5
71
  8
0
 10
9.0311966979979843
 20
-51.081810846322703
 30
0.0
 11
7.6528246934276458
 21
-54.993076959873179
 31
0.0
1001
ACDBBLOCKREPETAG
1070
     1
1071
       31
1005
71
  0
LINE
  5
72
  8
0
 10
10.085885649313241
 20
-51.453494511360077
 30
0.0
 11
8.7075136447447221
 21
-55.364760624911462
 31
0.0
1001
ACDBBLOCKREPETAG
1070
     1
1071
       32
1005
72
  0
LINE
  5
73
  8
0
 10
9.0311966979979843
 20
-51.081810846322703
 30
0.0
 11
10.085885649313241
 21
-51.453494511360077
 31
0.0
1001
ACDBBLOCKREPETAG
1070
     1
1071
       33
1005
73
  0
LINE
  5
74
  8
0
 10
7.6528246934285562
 20
-54.993076959874081
 30
0.0
 11
8.7075136447447221
 21
-55.364760624911462
 31
0.0
1001
ACDBBLOCKREPETAG
1070
     1
1071
       34
1005
74
  0
LINE
  5
75
  8
0
 10
7.5308673782546967
 20
-55.339142835092389
 30
0.0
 11
8.5855563295699522
 21
-55.71082650012977
 31
0.0
1001
ACDBBLOCKREPETAG
1070
     1
1071
       35
1005
75
  0
LINE
  5
76
  8
0
 10
7.530867378255607
 20
-55.339142835092389
 30
0.0
 11
7.7870210717710497
 21
-56.294515181130919
 31
0.0
1001
ACDBBLOCKREPETAG
1070
     1
1071
       36
1005
76
  0
LINE
  5
77
  8
0
 10
7.7870210717710497
 20
-56.294515181130919
 30
0.0
 11
8.5855563295699522
 21
-55.71082650012977
 31
0.0
1001
ACDBBLOCKREPETAG
1070
     1
1071
       37
1005
77
  0
LINE
  5
78
  8
0
 10
-32.199999999999818
 20
-15.474089938300491
 30
0.0
 11
32.19999999999709
 21
-15.474089938300491
 31
0.0
1001
ACDBBLOCKREPETAG
1070
     1
1071
       38
1005
78
  0
LINE
  5
79
  8
0
 10
-27.199999999999822
 20
0.0
 30
0.0
 11
-27.199999999999822
 21
-1.5
 31
0.0
1001
ACDBBLOCKREPETAG
1070
     1
1071
       39
1005
79
  0
LINE
  5
7A
  8
0
 10
-27.199999999997999
 20
-13.13425172568259
 30
0.0
 11
-27.199999999998909
 21
-13.4740899383014
 31
0.0
1001
ACDBBLOCKREPETAG
1070
     1
1071
       40
1005
7A
  0
LINE
  5
7B
  8
0
 10
27.199999999999822
 20
0.0
 30
0.0
 11
27.199999999999822
 21
-1.5
 31
0.0
1001
ACDBBLOCKREPETAG
1070
     1
1071
       41
1005
7B
  0
LINE
  5
7C
  8
0
 10
27.199999999998909
 20
-13.13425172568259
 30
0.0
 11
27.199999999998909
 21
-13.4740899383014
 31
0.0
1001
ACDBBLOCKREPETAG
1070
     1
1071
       42
1005
7C
  0
LINE
  5
7D
  8
0
 10
-32.199999999998909
 20
-13.474089938300491
 30
0.0
 11
32.199999999997999
 21
-13.4740899383014
 31
0.0
1001
ACDBBLOCKREPETAG
1070
     1
1071
       43
1005
7D
  0
LINE
  5
7E
  8
0
 10
-32.199999999999818
 20
-13.4740899383014
 30
0.0
 11
-32.200000000000728
 21
-15.4740899383014
 31
0.0
1001
ACDBBLOCKREPETAG
1070
     1
1071
       44
1005
7E
  0
LINE
  5
7F
  8
0
 10
32.199999999997999
 20
-13.4740899383014
 30
0.0
 11
32.19999999999709
 21
-15.474089938300491
 31
0.0
1001
ACDBBLOCKREPETAG
1070
     1
1071
       45
1005
7F
  0
LINE
  5
80
  8
0
 10
-31.076028035110539
 20
-1.5
 30
0.0
 11
-0.0000000000009095
 21
-1.5
 31
0.0
1001
ACDBBLOCKREPETAG
1070
     1
1071
       46
1005
80
  0
LINE
  5
81
  8
0
 10
-0.0000000000009095
 20
-13.13425172568259
 30
0.0
 11
-32.799321298888572
 21
-13.13425172568259
 31
0.0
1001
ACDBBLOCKREPETAG
1070
     1
1071
       47
1005
81
  0
LINE
  5
82
  8
0
 10
-32.799321298888572
 20
-13.13425172568259
 30
0.0
 11
-31.076028035110539
 21
-1.5
 31
0.0
1001
ACDBBLOCKREPETAG
1070
     1
1071
       48
1005
82
  0
LINE
  5
83
  8
0
 10
31.07602803510963
 20
-1.5
 30
0.0
 11
-0.0000000000009095
 21
-1.5
 31
0.0
1001
ACDBBLOCKREPETAG
1070
     1
1071
       49
1005
83
  0
LINE
  5
84
  8
0
 10
-0.0000000000009095
 20
-13.13425172568259
 30
0.0
 11
32.799321298887662
 21
-13.13425172568259
 31
0.0
1001
ACDBBLOCKREPETAG
1070
     1
1071
       50
1005
84
  0
LINE
  5
85
  8
0
 10
32.799321298887662
 20
-13.13425172568259
 30
0.0
 11
31.07602803510963
 21
-1.5
 31
0.0
1001
ACDBBLOCKREPETAG
1070
     1
1071
       51
1005
85
  0
LINE
  5
86
  8
0
 10
-27.199999999997999
 20
0.0
 30
0.0
 11
-27.199999999999822
 21
-1.5
 31
0.0
1001
ACDBBLOCKREPETAG
1070
     1
1071
       52
1005
86
  0
LINE
  5
87
  8
0
 10
-27.199999999998909
 20
0.0
 30
0.0
 11
27.199999999998909
 21
0.0
 31
0.0
1001
ACDBBLOCKREPETAG
1070
     1
1071
       53
1005
87
  0
ARC
  5
88
  8
0
 10
29.225676550933709
 20
-17.499766489235299
 30
0.0
 40
2.025676550934576
 50
90.0
 51
180.0
1001
ACDBBLOCKREPETAG
1070
     1
1071
       54
1005
88
  0
ARC
  5
89
  8
0
 10
-29.225676550935528
 20
-17.499766489231661
 30
0.0
 40
2.025676550934576
 50
0.0
 51
90.0
1001
ACDBBLOCKREPETAG
1070
     1
1071
       55
1005
89
  0
LINE
  5
8A
  8
0
 10
-0.999999999998181
 20
-1.5
 30
0.0
 11
-1.0
 21
-13.13425172568259
 31
0.0
1001
ACDBBLOCKREPETAG
1070
     1
1071
       56
1005
8A
  0
LINE
  5
8C
  8
0
 10
0.9999999999990905
 20
-1.5
 30
0.0
 11
0.9999999999990905
 21
-13.13425172568259
 31
0.0
1001
ACDBBLOCKREPETAG
1070
     1
1071
       57
1005
8C
  0
LINE
  5
8D
  8
0
 10
-11.56125567107483
 20
-1.5
 30
0.0
 11
-12.0
 21
-13.13425172568259
 31
0.0
1001
ACDBBLOCKREPETAG
1070
     1
1071
       58
1005
8D
  0
LINE
  5
8E
  8
0
 10
11.56125567107301
 20
-1.5
 30
0.0
 11
11.999999999998179
 21
-13.13425172568259
 31
0.0
1001
ACDBBLOCKREPETAG
1070
     1
1071
       59
1005
8E
  0
LINE
  5
8F
  8
0
 10
23.843775251720221
 20
-1.5
 30
0.0
 11
24.729460892332099
 21
-13.13425172568259
 31
0.0
1001
ACDBBLOCKREPETAG
1070
     1
1071
       60
1005
8F
  0
LINE
  5
90
  8
0
 10
25.46871036671655
 20
-1.5
 30
0.0
 11
26.354396007327519
 21
-13.13425172568259
 31
0.0
1001
ACDBBLOCKREPETAG
1070
     1
1071
       61
1005
90
  0
LINE
  5
91
  8
0
 10
-23.843775251720221
 20
-1.5
 30
0.0
 11
-24.729460892333009
 21
-13.13425172568259
 31
0.0
1001
ACDBBLOCKREPETAG
1070
     1
1071
       62
1005
91
  0
LINE
  5
92
  8
0
 10
-25.46871036671746
 20
-1.5
 30
0.0
 11
-26.354396007329338
 21
-13.13425172568259
 31
0.0
1001
ACDBBLOCKREPETAG
1070
     1
1071
       63
1005
92
  0
LINE
  5
93
  8
0
 10
-27.200000000000731
 20
-17.499766489231661
 30
0.0
 11
-27.200000000000731
 21
-79.500233510771977
 31
0.0
1001
ACDBBLOCKREPETAG
1070
     1
1071
       64
1005
93
  0
LINE
  5
94
  8
0
 10
27.199999999998909
 20
-17.499766489235299
 30
0.0
 11
27.199999999998909
 21
-79.500233510768339
 31
0.0
1001
ACDBBLOCKREPETAG
1070
     1
1071
       65
1005
94
  0
LINE
  5
95
  8
0
 10
-32.199999999999818
 20
-81.525910061703144
 30
0.0
 11
32.19999999999709
 21
-81.525910061703144
 31
0.0
1001
ACDBBLOCKREPETAG
1070
     1
1071
       66
1005
95
  0
LINE
  5
96
  8
0
 10
-27.199999999999822
 20
-97.000000000003652
 30
0.0
 11
-27.199999999999822
 21
-95.500000000003638
 31
0.0
1001
ACDBBLOCKREPETAG
1070
     1
1071
       67
1005
96
  0
LINE
  5
97
  8
0
 10
-27.199999999997999
 20
-83.865748274321035
 30
0.0
 11
-27.199999999998909
 21
-83.525910061702234
 31
0.0
1001
ACDBBLOCKREPETAG
1070
     1
1071
       68
1005
97
  0
LINE
  5
98
  8
0
 10
27.199999999999822
 20
-97.000000000003652
 30
0.0
 11
27.199999999999822
 21
-95.500000000003638
 31
0.0
1001
ACDBBLOCKREPETAG
1070
     1
1071
       69
1005
98
  0
LINE
  5
99
  8
0
 10
27.199999999998909
 20
-83.865748274321035
 30
0.0
 11
27.199999999998909
 21
-83.525910061702234
 31
0.0
1001
ACDBBLOCKREPETAG
1070
     1
1071
       70
1005
99
  0
LINE
  5
9A
  8
0
 10
-32.199999999998909
 20
-83.525910061703144
 30
0.0
 11
32.199999999997999
 21
-83.525910061702234
 31
0.0
1001
ACDBBLOCKREPETAG
1070
     1
1071
       71
1005
9A
  0
LINE
  5
9B
  8
0
 10
-32.199999999999818
 20
-83.525910061702234
 30
0.0
 11
-32.200000000000728
 21
-81.525910061702234
 31
0.0
1001
ACDBBLOCKREPETAG
1070
     1
1071
       72
1005
9B
  0
LINE
  5
9C
  8
0
 10
32.199999999997999
 20
-83.525910061702234
 30
0.0
 11
32.19999999999709
 21
-81.525910061703144
 31
0.0
1001
ACDBBLOCKREPETAG
1070
     1
1071
       73
1005
9C
  0
LINE
  5
9D
  8
0
 10
-31.076028035110539
 20
-95.500000000003638
 30
0.0
 11
-0.0000000000009095
 21
-95.500000000003638
 31
0.0
1001
ACDBBLOCKREPETAG
1070
     1
1071
       74
1005
9D
  0
LINE
  5
9E
  8
0
 10
-0.0000000000009095
 20
-83.865748274321035
 30
0.0
 11
-32.799321298888572
 21
-83.865748274321035
 31
0.0
1001
ACDBBLOCKREPETAG
1070
     1
1071
       75
1005
9E
  0
LINE
  5
9F
  8
0
 10
-32.799321298888572
 20
-83.865748274321035
 30
0.0
 11
-31.076028035110539
 21
-95.500000000003638
 31
0.0
1001
ACDBBLOCKREPETAG
1070
     1
1071
       76
1005
9F
  0
LINE
  5
A0
  8
0
 10
31.07602803510963
 20
-95.500000000003638
 30
0.0
 11
-0.0000000000009095
 21
-95.500000000003638
 31
0.0
1001
ACDBBLOCKREPETAG
1070
     1
1071
       77
1005
A0
  0
LINE
  5
A1
  8
0
 10
-0.0000000000009095
 20
-83.865748274321035
 30
0.0
 11
32.799321298887662
 21
-83.865748274321035
 31
0.0
1001
ACDBBLOCKREPETAG
1070
     1
1071
       78
1005
A1
  0
LINE
  5
A2
  8
0
 10
32.799321298887662
 20
-83.865748274321035
 30
0.0
 11
31.07602803510963
 21
-95.500000000003638
 31
0.0
1001
ACDBBLOCKREPETAG
1070
     1
1071
       79
1005
A2
  0
LINE
  5
A3
  8
0
 10
-27.199999999997999
 20
-97.000000000003652
 30
0.0
 11
-27.199999999999822
 21
-95.500000000003638
 31
0.0
1001
ACDBBLOCKREPETAG
1070
     1
1071
       80
1005
A3
  0
LINE
  5
A4
  8
0
 10
-27.199999999998909
 20
-97.000000000003652
 30
0.0
 11
27.199999999998909
 21
-97.000000000003652
 31
0.0
1001
ACDBBLOCKREPETAG
1070
     1
1071
       81
1005
A4
  0
ARC
  5
A5
  8
0
 10
29.225676550933709
 20
-79.500233510768339
 30
0.0
 40
2.025676550934576
 50
180.0
 51
270.0
1001
ACDBBLOCKREPETAG
1070
     1
1071
       82
1005
A5
  0
ARC
  5
A6
  8
0
 10
-29.225676550935528
 20
-79.500233510771977
 30
0.0
 40
2.025676550934576
 50
270.0
 51
0.0
1001
ACDBBLOCKREPETAG
1070
     1
1071
       83
1005
A6
  0
LINE
  5
A7
  8
0
 10
-0.999999999998181
 20
-95.500000000003638
 30
0.0
 11
-1.0
 21
-83.865748274321035
 31
0.0
1001
ACDBBLOCKREPETAG
1070
     1
1071
       84
1005
A7
  0
LINE
  5
A8
  8
0
 10
0.9999999999990905
 20
-95.500000000003638
 30
0.0
 11
0.9999999999990905
 21
-83.865748274321035
 31
0.0
1001
ACDBBLOCKREPETAG
1070
     1
1071
       85
1005
A8
  0
LINE
  5
A9
  8
0
 10
-11.56125567107483
 20
-95.500000000003638
 30
0.0
 11
-12.0
 21
-83.865748274321035
 31
0.0
1001
ACDBBLOCKREPETAG
1070
     1
1071
       86
1005
A9
  0
LINE
  5
AA
  8
0
 10
11.56125567107301
 20
-95.500000000003638
 30
0.0
 11
11.999999999998179
 21
-83.865748274321035
 31
0.0
1001
ACDBBLOCKREPETAG
1070
     1
1071
       87
1005
AA
  0
LINE
  5
AB
  8
0
 10
23.843775251720221
 20
-95.500000000003638
 30
0.0
 11
24.729460892332099
 21
-83.865748274321035
 31
0.0
1001
ACDBBLOCKREPETAG
1070
     1
1071
       88
1005
AB
  0
LINE
  5
AC
  8
0
 10
25.46871036671655
 20
-95.500000000003638
 30
0.0
 11
26.354396007327519
 21
-83.865748274321035
 31
0.0
1001
ACDBBLOCKREPETAG
1070
     1
1071
       89
1005
AC
  0
LINE
  5
AD
  8
0
 10
-23.843775251720221
 20
-95.500000000003638
 30
0.0
 11
-24.729460892333009
 21
-83.865748274321035
 31
0.0
1001
ACDBBLOCKREPETAG
1070
     1
1071
       90
1005
AD
  0
LINE
  5
AE
  8
0
 10
-25.46871036671746
 20
-95.500000000003638
 30
0.0
 11
-26.354396007329338
 21
-83.865748274321035
 31
0.0
1001
ACDBBLOCKREPETAG
1070
     1
1071
       91
1005
AE
  0
VIEWPORT
  5
19F
 67
     1
  8
0
  6
CONTINUOUS
 10
128.5
 20
97.5
 30
0.0
 40
348.79216438356173
 41
222.18000000000001
 68
     1
 69
     1
1001
ACAD
1000
MVIEW
1002
{
1070
    16
1010
0.0
1020
0.0
1030
0.0
1010
0.0
1020
0.0
1030
1.0
1040
0.0
1040
222.18000000000001
1040
128.5
1040
97.5
1040
50.0
1040
0.0
1040
0.0
1070
     0
1070
  1000
1070
     1
1070
     1
1070
     0
1070
     0
1070
     0
1070
     0
1040
0.0
1040
0.0
1040
0.0
1040
10.0
1040
10.0
1040
10.0
1040
10.0
1070
     0
1002
{
1002
}
1002
}
  0
VIEWPORT
  5
1A3
 67
     1
  8
0
  6
CONTINUOUS
 10
128.5
 20
97.5
 30
0.0
 40
205.59999999999999
 41
156.0
 68
     2
 69
     2
1001
ACAD
1000
MVIEW
1002
{
1070
    16
1010
30714.317967474461
1020
7339.7553224022467
1030
0.0
1010
-38962.971254248441
1020
-38962.97125424847
1030
38962.97125424847
1040
0.0000000000000005
1040
88.012983875748134
1040
-16494.017074712781
1040
-15555.31040786622
1040
50.0
1040
0.0
1040
0.0
1070
     0
1070
  1000
1070
     1
1070
     3
1070
     0
1070
     0
1070
     0
1070
     0
1040
0.0
1040
0.0
1040
0.0
1040
10.0
1040
10.0
1040
10.0
1040
10.0
1070
     0
1002
{
1002
}
1002
}
  0
ENDSEC
  0
EOF
