  0
SECTION
  2
HEADER
  9
$ACADVER
  1
AC1009
  9
$INSBASE
 10
0.0
 20
0.0
 30
0.0
  9
$EXTMIN
 10
-66.475022670397266
 20
-116.0000000000127
 30
0.0
  9
$EXTMAX
 10
66.475022670403632
 20
0.0000000000009095
 30
0.0
  9
$LIMMIN
 10
0.0
 20
0.0
  9
$LIMMAX
 10
420.0
 20
297.0
  9
$ORTHOMODE
 70
     0
  9
$REGENMODE
 70
     1
  9
$FILLMODE
 70
     1
  9
$QTEXTMODE
 70
     0
  9
$MIRRTEXT
 70
     0
  9
$DRAGMODE
 70
     2
  9
$LTSCALE
 40
1.0
  9
$OSMODE
 70
   127
  9
$ATTMODE
 70
     1
  9
$TEXTSIZE
 40
2.5
  9
$TRACEWID
 40
1.0
  9
$TEXTSTYLE
  7
STANDARD
  9
$CLAYER
  8
0
  9
$CELTYPE
  6
CONTINUOUS
  9
$CECOLOR
 62
   256
  9
$DIMSCALE
 40
1.0
  9
$DIMASZ
 40
2.5
  9
$DIMEXO
 40
0.625
  9
$DIMDLI
 40
3.75
  9
$DIMRND
 40
0.0
  9
$DIMDLE
 40
0.0
  9
$DIMEXE
 40
1.25
  9
$DIMTP
 40
0.0
  9
$DIMTM
 40
0.0
  9
$DIMTXT
 40
2.5
  9
$DIMCEN
 40
2.5
  9
$DIMTSZ
 40
0.0
  9
$DIMTOL
 70
     0
  9
$DIMLIM
 70
     0
  9
$DIMTIH
 70
     0
  9
$DIMTOH
 70
     0
  9
$DIMSE1
 70
     0
  9
$DIMSE2
 70
     0
  9
$DIMTAD
 70
     1
  9
$DIMZIN
 70
     8
  9
$DIMBLK
  1

  9
$DIMASO
 70
     1
  9
$DIMSHO
 70
     1
  9
$DIMPOST
  1

  9
$DIMAPOST
  1

  9
$DIMALT
 70
     0
  9
$DIMALTD
 70
     3
  9
$DIMALTF
 40
0.03937007874016
  9
$DIMLFAC
 40
1.0
  9
$DIMTOFL
 70
     1
  9
$DIMTVP
 40
0.0
  9
$DIMTIX
 70
     0
  9
$DIMSOXD
 70
     0
  9
$DIMSAH
 70
     0
  9
$DIMBLK1
  1

  9
$DIMBLK2
  1

  9
$DIMSTYLE
  2
STANDARD
  9
$DIMCLRD
 70
     0
  9
$DIMCLRE
 70
     0
  9
$DIMCLRT
 70
     0
  9
$DIMTFAC
 40
1.0
  9
$DIMGAP
 40
0.625
  9
$LUNITS
 70
     2
  9
$LUPREC
 70
     4
  9
$SKETCHINC
 40
1.0
  9
$FILLETRAD
 40
3.0
  9
$AUNITS
 70
     0
  9
$AUPREC
 70
     0
  9
$MENU
  1
.
  9
$ELEVATION
 40
0.0
  9
$PELEVATION
 40
0.0
  9
$THICKNESS
 40
0.0
  9
$LIMCHECK
 70
     0
  9
$BLIPMODE
 70
     0
  9
$CHAMFERA
 40
0.0
  9
$CHAMFERB
 40
0.0
  9
$SKPOLY
 70
     0
  9
$TDCREATE
 40
2455559.2317578131
  9
$TDUPDATE
 40
2457377.7205178011
  9
$TDINDWG
 40
2.9209942940000002
  9
$TDUSRTIMER
 40
2.9209903124999999
  9
$USRTIMER
 70
     1
  9
$ANGBASE
 50
0.0
  9
$ANGDIR
 70
     0
  9
$PDMODE
 70
     0
  9
$PDSIZE
 40
0.0
  9
$PLINEWID
 40
0.0
  9
$COORDS
 70
     2
  9
$SPLFRAME
 70
     0
  9
$SPLINETYPE
 70
     6
  9
$SPLINESEGS
 70
     8
  9
$ATTDIA
 70
     1
  9
$ATTREQ
 70
     1
  9
$HANDLING
 70
     1
  9
$HANDSEED
  5
28E
  9
$SURFTAB1
 70
     6
  9
$SURFTAB2
 70
     6
  9
$SURFTYPE
 70
     6
  9
$SURFU
 70
     6
  9
$SURFV
 70
     6
  9
$UCSNAME
  2

  9
$UCSORG
 10
0.0
 20
0.0
 30
0.0
  9
$UCSXDIR
 10
1.0
 20
0.0
 30
0.0
  9
$UCSYDIR
 10
0.0
 20
1.0
 30
0.0
  9
$PUCSNAME
  2

  9
$PUCSORG
 10
0.0
 20
0.0
 30
0.0
  9
$PUCSXDIR
 10
1.0
 20
0.0
 30
0.0
  9
$PUCSYDIR
 10
0.0
 20
1.0
 30
0.0
  9
$USERI1
 70
     0
  9
$USERI2
 70
     0
  9
$USERI3
 70
     0
  9
$USERI4
 70
     0
  9
$USERI5
 70
     0
  9
$USERR1
 40
0.0
  9
$USERR2
 40
0.0
  9
$USERR3
 40
0.0
  9
$USERR4
 40
0.0
  9
$USERR5
 40
0.0
  9
$WORLDVIEW
 70
     1
  9
$SHADEDGE
 70
     3
  9
$SHADEDIF
 70
    70
  9
$TILEMODE
 70
     1
  9
$MAXACTVP
 70
    64
  9
$PLIMCHECK
 70
     0
  9
$PEXTMIN
 10
25.699999999999989
 20
19.5
 30
0.0
  9
$PEXTMAX
 10
231.30000000000001
 20
175.5
 30
0.0
  9
$PLIMMIN
 10
-20.0
 20
-7.5
  9
$PLIMMAX
 10
277.0
 20
202.5
  9
$UNITMODE
 70
     0
  9
$VISRETAIN
 70
     1
  9
$PLINEGEN
 70
     0
  9
$PSLTSCALE
 70
     1
  0
ENDSEC
  0
SECTION
  2
TABLES
  0
TABLE
  2
VPORT
 70
     1
  0
VPORT
  2
*ACTIVE
 70
     0
 10
0.0
 20
0.0
 11
1.0
 21
1.0
 12
16458.127776663969
 22
5824.9361560382022
 13
0.0
 23
0.0
 14
10.0
 24
10.0
 15
10.0
 25
10.0
 16
-38962.971254248441
 26
-38962.97125424847
 36
38962.97125424847
 17
30714.317967474461
 27
7339.7553224022467
 37
0.0
 40
45085.451174768772
 41
1.56986301369863
 42
50.0
 43
0.0
 44
0.0
 50
0.0
 51
0.0000000000000313
 71
     0
 72
  1000
 73
     1
 74
     3
 75
     0
 76
     0
 77
     0
 78
     0
  0
ENDTAB
  0
TABLE
  2
LTYPE
 70
     3
  0
LTYPE
  2
CONTINUOUS
 70
     0
  3
Solid line
 72
    65
 73
     0
 40
0.0
  0
ENDTAB
  0
TABLE
  2
LAYER
 70
     9
  0
LAYER
  2
0
 70
     0
 62
     7
  6
CONTINUOUS
  0
ENDTAB
  0
TABLE
  2
STYLE
 70
     4
  0
STYLE
  2
STANDARD
 70
     0
 40
0.0
 41
1.0
 50
0.0
 71
     0
 42
2.5
  3
txt
  4

  0
STYLE
  2
INSCRIPTIONS
 70
     0
 40
0.0
 41
0.9
 50
0.0
 71
     0
 42
2.5
  3
txt
  4

  0
ENDTAB
  0
TABLE
  2
VIEW
 70
     1
  0
ENDTAB
  0
TABLE
  2
UCS
 70
     0
  0
ENDTAB
  0
TABLE
  2
APPID
 70
     7
  0
APPID
  2
ACAD
 70
     0
  0
APPID
  2
ACAD_PSEXT
 70
     0
  0
APPID
  2
ACAECLAYERSTANDARD
 70
     0
  0
APPID
  2
ACAD_NAV_VCDISPLAY
 70
     0
  0
APPID
  2
REVIT
 70
     0
  0
APPID
  2
ACAD_EXEMPT_FROM_CAD_STANDARDS
 70
     0
  0
APPID
  2
ACAD_MLEADERVER
 70
     0
  0
ENDTAB
  0
TABLE
  2
DIMSTYLE
 70
     1
  0
DIMSTYLE
  2
STANDARD
 70
     0
  3

  4

  5

  6

  7

 40
1.0
 41
0.18
 42
0.0625
 43
0.38
 44
0.18
 45
0.0
 46
0.0
 47
0.0
 48
0.0
140
0.18
141
0.09
142
0.0
143
25.399999999999999
144
1.0
145
0.0
146
1.0
147
0.09
 71
     0
 72
     0
 73
     1
 74
     1
 75
     0
 76
     0
 77
     0
 78
     0
170
     0
171
     2
172
     0
173
     0
174
     0
175
     0
176
     0
177
     0
178
     0
  0
ENDTAB
  0
ENDSEC
  0
SECTION
  2
BLOCKS
  0
BLOCK
  8
0
  2
$MODEL_SPACE
 70
     0
 10
0.0
 20
0.0
 30
0.0
  3
$MODEL_SPACE
  1

  0
ENDBLK
  5
D
  8
0
  0
BLOCK
 67
     1
  8
0
  2
$PAPER_SPACE
 70
     0
 10
0.0
 20
0.0
 30
0.0
  3
$PAPER_SPACE
  1

  0
ENDBLK
  5
19A
 67
     1
  8
0
  0
BLOCK
  8
0
  2
*U2
 70
     1
 10
0.0
 20
0.0
 30
0.0
  3
*U2
  1

  0
TEXT
  5
230
  8
0
  6
CONTINUOUS
 10
-28.274320855829501
 20
-40.256183156912719
 30
0.0
 40
20.020769999999992
  1
110
 41
0.8
  7
INSCRIPTIONS
  0
ENDBLK
  5
232
  8
0
  0
BLOCK
  8
0
  2
*U3
 70
     1
 10
0.0
 20
0.0
 30
0.0
  3
*U3
  1

  0
TEXT
  5
243
  8
0
  6
CONTINUOUS
 10
6.991397918900474
 20
-34.006943777264127
 30
0.0
 40
8.0999999999999996
  1
PP-MD
 41
0.6
  7
INSCRIPTIONS
  0
ENDBLK
  5
245
  8
0
  0
ENDSEC
  0
SECTION
  2
ENTITIES
  0
LINE
  5
4B
  8
0
 10
0.0
 20
0.0
 30
0.0
 11
0.0000000000027285
 21
-116.0
 31
0.0
  0
ARC
  5
4F
  8
0
 10
-0.0000000000009095
 20
-50.229629949699302
 30
0.0
 40
38.954503636548402
 50
239.34608426254911
 51
300.65391573745092
  0
ARC
  5
51
  8
0
 10
-0.0000000000009095
 20
-50.229629949699302
 30
0.0
 40
41.834503636548398
 50
239.34608426254911
 51
300.65391573745092
  0
ARC
  5
52
  8
0
 10
14.721699018848989
 20
-75.069286514396481
 30
0.0
 40
10.08
 50
300.65391573745092
 51
356.42366562497011
  0
ARC
  5
53
  8
0
 10
14.721699018848989
 20
-75.069286514396481
 30
0.0
 40
12.960000000000001
 50
300.65391573745092
 51
356.42366562497011
  0
ARC
  5
54
  8
0
 10
-14.721699018852631
 20
-75.069286514394662
 30
0.0
 40
10.08
 50
183.57633437502989
 51
239.34608426254911
  0
ARC
  5
55
  8
0
 10
-14.721699018852631
 20
-75.069286514394662
 30
0.0
 40
12.960000000000001
 50
183.57633437502989
 51
239.34608426254911
  0
LINE
  5
56
  8
0
 10
-24.782069009959741
 20
-75.698059638839354
 30
0.0
 11
-25.619457611248439
 21
-49.259073368510151
 31
0.0
  0
LINE
  5
57
  8
0
 10
-27.6564604359919
 20
-75.877709102966037
 30
0.0
 11
-28.713638008203819
 21
-44.632392893418
 31
0.0
  0
LINE
  5
58
  8
0
 10
24.782069009956111
 20
-75.698059638840277
 30
0.0
 11
25.619457611242979
 21
-49.259073368510151
 31
0.0
  0
LINE
  5
59
  8
0
 10
27.656460435987359
 20
-75.877709102966946
 30
0.0
 11
28.713638008202
 21
-44.632392893418
 31
0.0
  0
LINE
  5
5A
  8
0
 10
-28.713638008202899
 20
-44.632392893418
 30
0.0
 11
28.713638008202
 21
-44.632392893418
 31
0.0
  0
LINE
  5
5B
  8
0
 10
-56.544486267197499
 20
-58.000000000007283
 30
0.0
 11
-58.411999999996631
 21
-46.499999999999083
 31
0.0
  0
INSERT
  5
5C
  8
0
  6
CONTINUOUS
  2
*U2
 10
0.0
 20
0.0
 30
0.0
  0
POLYLINE
  5
5F
  8
0
 66
     1
 10
0.0
 20
0.0
 30
0.0
 70
     1
  0
VERTEX
  5
233
  8
0
 10
-30.831397987059969
 20
-24.335313771437541
 30
0.0
  0
VERTEX
  5
234
  8
0
 10
-37.988558623666911
 20
-24.335313771437541
 30
0.0
  0
VERTEX
  5
235
  8
0
 10
-37.988558623666911
 20
-26.692388505880441
 30
0.0
  0
VERTEX
  5
236
  8
0
 10
-30.831397987059969
 20
-26.692388505880441
 30
0.0
  0
SEQEND
  5
237
  8
0
  0
POLYLINE
  5
60
  8
0
 66
     1
 10
0.0
 20
0.0
 30
0.0
 70
     1
  0
VERTEX
  5
238
  8
0
 10
-30.225647733779631
 20
-39.949522893958601
 30
0.0
  0
VERTEX
  5
239
  8
0
 10
-34.484310350991109
 20
-39.949522893958601
 30
0.0
  0
VERTEX
  5
23A
  8
0
 10
-34.484310350991109
 20
-38.8083153535581
 30
0.0
  0
VERTEX
  5
23B
  8
0
 10
-30.225647733778711
 20
-38.8083153535581
 30
0.0
  0
SEQEND
  5
23C
  8
0
  0
LINE
  5
61
  8
0
 10
-30.575566742923911
 20
-33.453005167227282
 30
0.0
 11
-36.299920045063118
 21
-33.453005167227282
 31
0.0
  0
POLYLINE
  5
62
  8
0
 66
     1
 10
0.0
 20
0.0
 30
0.0
 70
     1
  0
VERTEX
  5
23D
  8
0
 10
-30.575566742923911
 20
-33.453005167227282
 30
0.0
  0
VERTEX
  5
23E
  8
0
 10
-36.732054504361258
 20
-33.453005167227282
 30
0.0
  0
VERTEX
  5
23F
  8
0
 10
-36.732054504362168
 20
-31.891534834277081
 30
0.0
  0
VERTEX
  5
240
  8
0
 10
-30.575566742923911
 20
-31.891534834277081
 30
0.0
  0
SEQEND
  5
241
  8
0
  0
INSERT
  5
63
  8
0
  6
CONTINUOUS
  2
*U3
 10
0.0
 20
0.0
 30
0.0
  0
POLYLINE
  5
64
  8
0
 66
     1
 10
0.0
 20
0.0
 30
0.0
 70
     1
  0
VERTEX
  5
246
  8
0
 10
30.831397987059969
 20
-24.335313771437541
 30
0.0
  0
VERTEX
  5
247
  8
0
 10
37.988558623666911
 20
-24.335313771436631
 30
0.0
  0
VERTEX
  5
248
  8
0
 10
37.988558623666911
 20
-26.692388505879538
 30
0.0
  0
VERTEX
  5
249
  8
0
 10
30.831397987059969
 20
-26.692388505879538
 30
0.0
  0
SEQEND
  5
24A
  8
0
  0
POLYLINE
  5
65
  8
0
 66
     1
 10
0.0
 20
0.0
 30
0.0
 70
     1
  0
VERTEX
  5
24B
  8
0
 10
30.225647733779631
 20
-39.949522893957692
 30
0.0
  0
VERTEX
  5
24C
  8
0
 10
34.484310350992018
 20
-39.949522893956782
 30
0.0
  0
VERTEX
  5
24D
  8
0
 10
34.484310350992018
 20
-38.8083153535581
 30
0.0
  0
VERTEX
  5
24E
  8
0
 10
30.225647733779631
 20
-38.8083153535581
 30
0.0
  0
SEQEND
  5
24F
  8
0
  0
POLYLINE
  5
66
  8
0
 66
     1
 10
0.0
 20
0.0
 30
0.0
 70
     1
  0
VERTEX
  5
250
  8
0
 10
30.575566742924821
 20
-33.453005167226372
 30
0.0
  0
VERTEX
  5
251
  8
0
 10
36.732054504362168
 20
-33.453005167225463
 30
0.0
  0
VERTEX
  5
252
  8
0
 10
36.732054504362168
 20
-31.891534834276172
 30
0.0
  0
VERTEX
  5
253
  8
0
 10
30.575566742924821
 20
-31.891534834276172
 30
0.0
  0
SEQEND
  5
254
  8
0
  0
LINE
  5
67
  8
0
 10
-56.544486267198401
 20
-58.000000000007283
 30
0.0
 11
-28.388931299752588
 21
-58.000000000003631
 31
0.0
  0
LINE
  5
68
  8
0
 10
-58.411999999996631
 20
-46.499999999999083
 30
0.0
 11
-28.629200280433
 21
-46.499999999999083
 31
0.0
  0
LINE
  5
69
  8
0
 10
28.629200280431181
 20
-46.499999999999083
 30
0.0
 11
58.41200000000299
 21
-46.5
 31
0.0
  0
LINE
  5
6A
  8
0
 10
-25.619457611248439
 20
-49.259073368510151
 30
0.0
 11
25.619457611242979
 21
-49.259073368510151
 31
0.0
  0
LINE
  5
6B
  8
0
 10
56.544486267202949
 20
-58.000000000007283
 30
0.0
 11
58.412000000002081
 21
-46.499999999999083
 31
0.0
  0
LINE
  5
6C
  8
0
 10
56.544486267203872
 20
-58.000000000007283
 30
0.0
 11
28.388931299758038
 21
-58.000000000003631
 31
0.0
  0
LINE
  5
6D
  8
0
 10
55.100000000000371
 20
-98.035246156898225
 30
0.0
 11
-55.099999999999447
 21
-98.03524615689912
 31
0.0
  0
LINE
  5
6E
  8
0
 10
-65.611999999998261
 20
-98.03524615689912
 30
0.0
 11
65.611999999999171
 21
-98.035246156898225
 31
0.0
  0
LINE
  5
6F
  8
0
 10
-58.411999999998443
 20
-116.0000000000127
 30
0.0
 11
-58.411999999998443
 21
-113.84000000001291
 31
0.0
  0
LINE
  5
70
  8
0
 10
-58.411999999995707
 20
-101.4046131830701
 30
0.0
 11
-58.411999999996631
 21
-100.9152461569001
 31
0.0
  0
LINE
  5
71
  8
0
 10
-58.411999999999352
 20
-95.118271923559405
 30
0.0
 11
-58.411999999996631
 21
-69.500000000012733
 31
0.0
  0
LINE
  5
72
  8
0
 10
58.4120000000039
 20
-116.0000000000109
 30
0.0
 11
58.4120000000039
 21
-113.840000000011
 31
0.0
  0
LINE
  5
73
  8
0
 10
58.412000000002081
 20
-101.40461318306819
 30
0.0
 11
58.4120000000039
 21
-100.91524615689831
 31
0.0
  0
LINE
  5
74
  8
0
 10
58.41200000000299
 20
-95.118271923553024
 30
0.0
 11
58.41200000000299
 21
-69.500000000011823
 31
0.0
  0
LINE
  5
75
  8
0
 10
-65.611999999996442
 20
-100.9152461569001
 30
0.0
 11
65.612000000001899
 21
-100.91524615689831
 31
0.0
  0
LINE
  5
76
  8
0
 10
-65.611999999998261
 20
-100.9152461568992
 30
0.0
 11
-65.611999999999171
 21
-98.03524615689912
 31
0.0
  0
LINE
  5
77
  8
0
 10
65.612000000001899
 20
-100.91524615689831
 30
0.0
 11
65.61200000000008
 21
-98.035246156898225
 31
0.0
  0
LINE
  5
78
  8
0
 10
-63.993480370556419
 20
-113.84000000001291
 30
0.0
 11
0.0
 21
-113.8400000000119
 31
0.0
  0
LINE
  5
79
  8
0
 10
0.0
 20
-101.4046131830691
 30
0.0
 11
-66.475022670396356
 21
-101.4046131830701
 31
0.0
  0
LINE
  5
7A
  8
0
 10
-66.475022670396356
 20
-101.4046131830701
 30
0.0
 11
-63.993480370556419
 21
-113.84000000001291
 31
0.0
  0
LINE
  5
7B
  8
0
 10
63.99348037056189
 20
-113.840000000011
 30
0.0
 11
0.0
 21
-113.8400000000119
 31
0.0
  0
LINE
  5
7C
  8
0
 10
0.0
 20
-101.4046131830691
 30
0.0
 11
66.475022670403632
 21
-101.40461318306819
 31
0.0
  0
LINE
  5
7D
  8
0
 10
66.475022670403632
 20
-101.40461318306819
 30
0.0
 11
63.99348037056189
 21
-113.840000000011
 31
0.0
  0
LINE
  5
7E
  8
0
 10
-58.411999999994812
 20
-116.0000000000127
 30
0.0
 11
-58.411999999998443
 21
-113.8400000000119
 31
0.0
  0
LINE
  5
7F
  8
0
 10
-58.411999999996631
 20
-95.118271923559405
 30
0.0
 11
-58.411999999996631
 21
-69.500000000012733
 31
0.0
  0
LINE
  5
80
  8
0
 10
-58.411999999996631
 20
-116.0000000000127
 30
0.0
 11
58.4120000000039
 21
-116.0000000000109
 31
0.0
  0
ARC
  5
81
  8
0
 10
61.328974233349072
 20
-95.118271923553024
 30
0.0
 40
2.91697423334579
 50
180.0
 51
270.0
  0
ARC
  5
82
  8
0
 10
-61.328974233345441
 20
-95.118271923559405
 30
0.0
 40
2.91697423334579
 50
270.0
 51
0.0
  0
LINE
  5
83
  8
0
 10
-1.4399999999968709
 20
-113.8400000000119
 30
0.0
 11
-1.4399999999986901
 21
-101.4046131830691
 31
0.0
  0
LINE
  5
85
  8
0
 10
1.4400000000005091
 20
-113.8400000000119
 30
0.0
 11
1.4400000000005091
 21
-101.4046131830691
 31
0.0
  0
LINE
  5
86
  8
0
 10
-16.648208166345281
 20
-113.8400000000119
 30
0.0
 11
-17.279999999998829
 21
-101.4046131830691
 31
0.0
  0
LINE
  5
87
  8
0
 10
16.6482081663471
 20
-113.8400000000119
 30
0.0
 11
17.279999999998829
 21
-101.4046131830691
 31
0.0
  0
LINE
  5
88
  8
0
 10
-47.056612677513833
 20
-113.84000000001291
 30
0.0
 11
-48.331999999994878
 21
-101.4046131830701
 31
0.0
  0
LINE
  5
89
  8
0
 10
-49.396519243109651
 20
-113.84000000001291
 30
0.0
 11
-50.671906565589772
 21
-101.4046131830701
 31
0.0
  0
LINE
  5
8A
  8
0
 10
47.056612677521123
 20
-113.8400000000119
 30
0.0
 11
48.332000000002147
 21
-101.40461318306819
 31
0.0
  0
LINE
  5
8B
  8
0
 10
49.396519243115108
 20
-113.8400000000119
 30
0.0
 11
50.671906565596139
 21
-101.40461318306819
 31
0.0
  0
LINE
  5
8C
  8
0
 10
-56.544486267197499
 20
-58.000000000005457
 30
0.0
 11
-58.411999999996631
 21
-69.500000000012733
 31
0.0
  0
LINE
  5
8D
  8
0
 10
-58.411999999996631
 20
-69.500000000012733
 30
0.0
 11
-27.900348802998451
 21
-69.500000000012733
 31
0.0
  0
LINE
  5
8E
  8
0
 10
27.90034880299482
 20
-69.500000000011823
 30
0.0
 11
58.41200000000299
 21
-69.500000000011823
 31
0.0
  0
LINE
  5
8F
  8
0
 10
56.544486267202949
 20
-58.000000000003631
 30
0.0
 11
58.412000000002081
 21
-69.500000000011823
 31
0.0
  0
LINE
  5
90
  8
0
 10
55.099999999999447
 20
-17.96475384311179
 30
0.0
 11
-55.100000000000371
 21
-17.9647538431127
 31
0.0
  0
LINE
  5
91
  8
0
 10
-65.611999999999171
 20
-17.96475384311179
 30
0.0
 11
65.611999999998261
 21
-17.9647538431127
 31
0.0
  0
LINE
  5
92
  8
0
 10
-58.411999999999352
 20
0.0000000000009095
 30
0.0
 11
-58.411999999999352
 21
-2.1599999999989441
 31
0.0
  0
LINE
  5
93
  8
0
 10
-58.411999999996631
 20
-14.595386816941749
 30
0.0
 11
-58.411999999997533
 21
-15.084753843111679
 31
0.0
  0
LINE
  5
94
  8
0
 10
-58.412000000000262
 20
-20.881728076452418
 30
0.0
 11
-58.411999999997533
 21
-46.499999999998181
 31
0.0
  0
LINE
  5
95
  8
0
 10
58.41200000000299
 20
0.0000000000009095
 30
0.0
 11
58.41200000000299
 21
-2.1599999999989441
 31
0.0
  0
LINE
  5
96
  8
0
 10
58.412000000000262
 20
-14.595386816941749
 30
0.0
 11
58.412000000002081
 21
-15.084753843111679
 31
0.0
  0
LINE
  5
97
  8
0
 10
58.412000000002081
 20
-20.881728076457879
 30
0.0
 11
58.412000000002081
 21
-46.499999999999083
 31
0.0
  0
LINE
  5
98
  8
0
 10
-65.611999999998261
 20
-15.084753843111679
 30
0.0
 11
65.61200000000008
 21
-15.084753843111679
 31
0.0
  0
LINE
  5
99
  8
0
 10
-65.611999999999171
 20
-15.084753843111679
 30
0.0
 11
-65.61200000000008
 21
-17.96475384311179
 31
0.0
  0
LINE
  5
9A
  8
0
 10
65.61200000000008
 20
-15.084753843111679
 30
0.0
 11
65.611999999999171
 21
-17.96475384311179
 31
0.0
  0
LINE
  5
9B
  8
0
 10
-63.993480370557343
 20
-2.1599999999989441
 30
0.0
 11
-0.0000000000009095
 21
-2.1599999999989441
 31
0.0
  0
LINE
  5
9C
  8
0
 10
-0.0000000000009095
 20
-14.595386816941749
 30
0.0
 11
-66.475022670397266
 21
-14.595386816941749
 31
0.0
  0
LINE
  5
9D
  8
0
 10
-66.475022670397266
 20
-14.595386816941749
 30
0.0
 11
-63.993480370557343
 21
-2.1599999999989441
 31
0.0
  0
LINE
  5
9E
  8
0
 10
63.993480370560967
 20
-2.1599999999989441
 30
0.0
 11
-0.0000000000009095
 21
-2.1599999999989441
 31
0.0
  0
LINE
  5
9F
  8
0
 10
-0.0000000000009095
 20
-14.595386816941749
 30
0.0
 11
66.475022670401813
 21
-14.595386816941749
 31
0.0
  0
LINE
  5
A0
  8
0
 10
66.475022670401813
 20
-14.595386816941749
 30
0.0
 11
63.993480370560967
 21
-2.1599999999989441
 31
0.0
  0
LINE
  5
A1
  8
0
 10
-58.411999999996631
 20
0.0000000000009095
 30
0.0
 11
-58.411999999999352
 21
-2.1599999999989441
 31
0.0
  0
LINE
  5
A2
  8
0
 10
-58.411999999997533
 20
-20.881728076452418
 30
0.0
 11
-58.411999999997533
 21
-46.499999999998181
 31
0.0
  0
LINE
  5
A3
  8
0
 10
-58.411999999997533
 20
0.0000000000009095
 30
0.0
 11
58.412000000002081
 21
0.0000000000009095
 31
0.0
  0
ARC
  5
A4
  8
0
 10
61.328974233348163
 20
-20.881728076457879
 30
0.0
 40
2.91697423334579
 50
90.0
 51
180.0
  0
ARC
  5
A5
  8
0
 10
-61.328974233346337
 20
-20.881728076452418
 30
0.0
 40
2.91697423334579
 50
0.0
 51
90.0
  0
LINE
  5
A6
  8
0
 10
-1.4399999999977799
 20
-2.1599999999989441
 30
0.0
 11
-1.4399999999995989
 21
-14.595386816941749
 31
0.0
  0
LINE
  5
A7
  8
0
 10
1.4399999999995989
 20
-2.1599999999989441
 30
0.0
 11
1.4399999999995989
 21
-14.595386816941749
 31
0.0
  0
LINE
  5
A8
  8
0
 10
-16.6482081663471
 20
-2.1599999999989441
 30
0.0
 11
-17.279999999999738
 21
-14.595386816941749
 31
0.0
  0
LINE
  5
A9
  8
0
 10
16.648208166345281
 20
-2.1599999999989441
 30
0.0
 11
17.279999999997919
 21
-14.595386816941749
 31
0.0
  0
LINE
  5
AA
  8
0
 10
-47.056612677515652
 20
-2.1599999999989441
 30
0.0
 11
-48.331999999996697
 21
-14.595386816941749
 31
0.0
  0
LINE
  5
AB
  8
0
 10
-49.396519243110561
 20
-2.1599999999989441
 30
0.0
 11
-50.671906565591598
 21
-14.595386816941749
 31
0.0
  0
LINE
  5
AC
  8
0
 10
47.056612677519297
 20
-2.1599999999989441
 30
0.0
 11
48.332000000000328
 21
-14.595386816941749
 31
0.0
  0
LINE
  5
AD
  8
0
 10
49.396519243114192
 20
-2.1599999999989441
 30
0.0
 11
50.671906565595243
 21
-14.595386816941749
 31
0.0
  0
VIEWPORT
  5
19E
 67
     1
  8
0
  6
CONTINUOUS
 10
128.5
 20
97.5
 30
0.0
 40
348.79216438356173
 41
222.18000000000001
 68
     1
 69
     1
1001
ACAD
1000
MVIEW
1002
{
1070
    16
1010
0.0
1020
0.0
1030
0.0
1010
0.0
1020
0.0
1030
1.0
1040
0.0
1040
222.18000000000001
1040
128.5
1040
97.5
1040
50.0
1040
0.0
1040
0.0
1070
     0
1070
  1000
1070
     1
1070
     1
1070
     0
1070
     0
1070
     0
1070
     0
1040
0.0
1040
0.0
1040
0.0
1040
10.0
1040
10.0
1040
10.0
1040
10.0
1070
     0
1002
{
1002
}
1002
}
  0
VIEWPORT
  5
1A2
 67
     1
  8
0
  6
CONTINUOUS
 10
128.5
 20
97.5
 30
0.0
 40
205.59999999999999
 41
156.0
 68
     2
 69
     2
1001
ACAD
1000
MVIEW
1002
{
1070
    16
1010
30714.317967474461
1020
7339.7553224022467
1030
0.0
1010
-38962.971254248441
1020
-38962.97125424847
1030
38962.97125424847
1040
0.0000000000000005
1040
134.7541158793646
1040
-16487.2995602915
1040
-15559.18876662563
1040
50.0
1040
0.0
1040
0.0
1070
     0
1070
  1000
1070
     1
1070
     3
1070
     0
1070
     0
1070
     0
1070
     0
1040
0.0
1040
0.0
1040
0.0
1040
10.0
1040
10.0
1040
10.0
1040
10.0
1070
     0
1002
{
1002
}
1002
}
  0
ENDSEC
  0
EOF
