  0
SECTION
  2
HEADER
  9
$ACADVER
  1
AC1009
  9
$INSBASE
 10
0.0
 20
0.0
 30
0.0
  9
$EXTMIN
 10
-45.599321298888754
 20
-162.69999999999979
 30
0.0
  9
$EXTMAX
 10
85.905736526477085
 20
0.0
 30
0.0
  9
$LIMMIN
 10
0.0
 20
0.0
  9
$LIMMAX
 10
420.0
 20
297.0
  9
$ORTHOMODE
 70
     0
  9
$REGENMODE
 70
     1
  9
$FILLMODE
 70
     1
  9
$QTEXTMODE
 70
     0
  9
$MIRRTEXT
 70
     0
  9
$DRAGMODE
 70
     2
  9
$LTSCALE
 40
1.0
  9
$OSMODE
 70
   127
  9
$ATTMODE
 70
     1
  9
$TEXTSIZE
 40
2.5
  9
$TRACEWID
 40
1.0
  9
$TEXTSTYLE
  7
STANDARD
  9
$CLAYER
  8
0
  9
$CELTYPE
  6
CONTINUOUS
  9
$CECOLOR
 62
   256
  9
$DIMSCALE
 40
1.0
  9
$DIMASZ
 40
2.5
  9
$DIMEXO
 40
0.625
  9
$DIMDLI
 40
3.75
  9
$DIMRND
 40
0.0
  9
$DIMDLE
 40
0.0
  9
$DIMEXE
 40
1.25
  9
$DIMTP
 40
0.0
  9
$DIMTM
 40
0.0
  9
$DIMTXT
 40
2.5
  9
$DIMCEN
 40
2.5
  9
$DIMTSZ
 40
0.0
  9
$DIMTOL
 70
     0
  9
$DIMLIM
 70
     0
  9
$DIMTIH
 70
     0
  9
$DIMTOH
 70
     0
  9
$DIMSE1
 70
     0
  9
$DIMSE2
 70
     0
  9
$DIMTAD
 70
     1
  9
$DIMZIN
 70
     8
  9
$DIMBLK
  1

  9
$DIMASO
 70
     1
  9
$DIMSHO
 70
     1
  9
$DIMPOST
  1

  9
$DIMAPOST
  1

  9
$DIMALT
 70
     0
  9
$DIMALTD
 70
     3
  9
$DIMALTF
 40
0.03937007874016
  9
$DIMLFAC
 40
1.0
  9
$DIMTOFL
 70
     1
  9
$DIMTVP
 40
0.0
  9
$DIMTIX
 70
     0
  9
$DIMSOXD
 70
     0
  9
$DIMSAH
 70
     0
  9
$DIMBLK1
  1

  9
$DIMBLK2
  1

  9
$DIMSTYLE
  2
STANDARD
  9
$DIMCLRD
 70
     0
  9
$DIMCLRE
 70
     0
  9
$DIMCLRT
 70
     0
  9
$DIMTFAC
 40
1.0
  9
$DIMGAP
 40
0.625
  9
$LUNITS
 70
     2
  9
$LUPREC
 70
     4
  9
$SKETCHINC
 40
1.0
  9
$FILLETRAD
 40
3.0
  9
$AUNITS
 70
     0
  9
$AUPREC
 70
     0
  9
$MENU
  1
.
  9
$ELEVATION
 40
0.0
  9
$PELEVATION
 40
0.0
  9
$THICKNESS
 40
0.0
  9
$LIMCHECK
 70
     0
  9
$BLIPMODE
 70
     0
  9
$CHAMFERA
 40
0.0
  9
$CHAMFERB
 40
0.0
  9
$SKPOLY
 70
     0
  9
$TDCREATE
 40
2455559.2317578131
  9
$TDUPDATE
 40
2457377.7231964809
  9
$TDINDWG
 40
2.9208974769
  9
$TDUSRTIMER
 40
2.9208934954000001
  9
$USRTIMER
 70
     1
  9
$ANGBASE
 50
0.0
  9
$ANGDIR
 70
     0
  9
$PDMODE
 70
     0
  9
$PDSIZE
 40
0.0
  9
$PLINEWID
 40
0.0
  9
$COORDS
 70
     2
  9
$SPLFRAME
 70
     0
  9
$SPLINETYPE
 70
     6
  9
$SPLINESEGS
 70
     8
  9
$ATTDIA
 70
     1
  9
$ATTREQ
 70
     1
  9
$HANDLING
 70
     1
  9
$HANDSEED
  5
2D7
  9
$SURFTAB1
 70
     6
  9
$SURFTAB2
 70
     6
  9
$SURFTYPE
 70
     6
  9
$SURFU
 70
     6
  9
$SURFV
 70
     6
  9
$UCSNAME
  2

  9
$UCSORG
 10
0.0
 20
0.0
 30
0.0
  9
$UCSXDIR
 10
1.0
 20
0.0
 30
0.0
  9
$UCSYDIR
 10
0.0
 20
1.0
 30
0.0
  9
$PUCSNAME
  2

  9
$PUCSORG
 10
0.0
 20
0.0
 30
0.0
  9
$PUCSXDIR
 10
1.0
 20
0.0
 30
0.0
  9
$PUCSYDIR
 10
0.0
 20
1.0
 30
0.0
  9
$USERI1
 70
     0
  9
$USERI2
 70
     0
  9
$USERI3
 70
     0
  9
$USERI4
 70
     0
  9
$USERI5
 70
     0
  9
$USERR1
 40
0.0
  9
$USERR2
 40
0.0
  9
$USERR3
 40
0.0
  9
$USERR4
 40
0.0
  9
$USERR5
 40
0.0
  9
$WORLDVIEW
 70
     1
  9
$SHADEDGE
 70
     3
  9
$SHADEDIF
 70
    70
  9
$TILEMODE
 70
     1
  9
$MAXACTVP
 70
    64
  9
$PLIMCHECK
 70
     0
  9
$PEXTMIN
 10
25.699999999999989
 20
19.5
 30
0.0
  9
$PEXTMAX
 10
231.30000000000001
 20
175.5
 30
0.0
  9
$PLIMMIN
 10
-20.0
 20
-7.5
  9
$PLIMMAX
 10
277.0
 20
202.5
  9
$UNITMODE
 70
     0
  9
$VISRETAIN
 70
     1
  9
$PLINEGEN
 70
     0
  9
$PSLTSCALE
 70
     1
  0
ENDSEC
  0
SECTION
  2
TABLES
  0
TABLE
  2
VPORT
 70
     1
  0
VPORT
  2
*ACTIVE
 70
     0
 10
0.0
 20
0.0
 11
1.0
 21
1.0
 12
16458.127776663969
 22
5824.9361560382022
 13
0.0
 23
0.0
 14
10.0
 24
10.0
 15
10.0
 25
10.0
 16
-38962.971254248441
 26
-38962.97125424847
 36
38962.97125424847
 17
30714.317967474461
 27
7339.7553224022467
 37
0.0
 40
45085.451174768772
 41
1.56986301369863
 42
50.0
 43
0.0
 44
0.0
 50
0.0
 51
0.0000000000000313
 71
     0
 72
  1000
 73
     1
 74
     3
 75
     0
 76
     0
 77
     0
 78
     0
  0
ENDTAB
  0
TABLE
  2
LTYPE
 70
     4
  0
LTYPE
  2
CONTINUOUS
 70
     0
  3
Solid line
 72
    65
 73
     0
 40
0.0
  0
ENDTAB
  0
TABLE
  2
LAYER
 70
    10
  0
LAYER
  2
0
 70
     0
 62
     7
  6
CONTINUOUS
  0
ENDTAB
  0
TABLE
  2
STYLE
 70
     4
  0
STYLE
  2
STANDARD
 70
     0
 40
0.0
 41
1.0
 50
0.0
 71
     0
 42
2.5
  3
txt
  4

  0
STYLE
  2
INSCRIPTIONS
 70
     0
 40
0.0
 41
0.9
 50
0.0
 71
     0
 42
2.5
  3
txt
  4

  0
ENDTAB
  0
TABLE
  2
VIEW
 70
     1
  0
ENDTAB
  0
TABLE
  2
UCS
 70
     0
  0
ENDTAB
  0
TABLE
  2
APPID
 70
     7
  0
APPID
  2
ACAD
 70
     0
  0
APPID
  2
ACAD_PSEXT
 70
     0
  0
APPID
  2
ACAECLAYERSTANDARD
 70
     0
  0
APPID
  2
ACAD_NAV_VCDISPLAY
 70
     0
  0
APPID
  2
REVIT
 70
     0
  0
APPID
  2
ACAD_EXEMPT_FROM_CAD_STANDARDS
 70
     0
  0
APPID
  2
ACAD_MLEADERVER
 70
     0
  0
ENDTAB
  0
TABLE
  2
DIMSTYLE
 70
     1
  0
DIMSTYLE
  2
STANDARD
 70
     0
  3

  4

  5

  6

  7

 40
1.0
 41
0.18
 42
0.0625
 43
0.38
 44
0.18
 45
0.0
 46
0.0
 47
0.0
 48
0.0
140
0.18
141
0.09
142
0.0
143
25.399999999999999
144
1.0
145
0.0
146
1.0
147
0.09
 71
     0
 72
     0
 73
     1
 74
     1
 75
     0
 76
     0
 77
     0
 78
     0
170
     0
171
     2
172
     0
173
     0
174
     0
175
     0
176
     0
177
     0
178
     0
  0
ENDTAB
  0
ENDSEC
  0
SECTION
  2
BLOCKS
  0
BLOCK
  8
0
  2
$MODEL_SPACE
 70
     0
 10
0.0
 20
0.0
 30
0.0
  3
$MODEL_SPACE
  1

  0
ENDBLK
  5
D
  8
0
  0
BLOCK
 67
     1
  8
0
  2
$PAPER_SPACE
 70
     0
 10
0.0
 20
0.0
 30
0.0
  3
$PAPER_SPACE
  1

  0
ENDBLK
  5
1BD
 67
     1
  8
0
  0
BLOCK
  8
0
  2
*U2
 70
     1
 10
0.0
 20
0.0
 30
0.0
  3
*U2
  1

  0
TEXT
  5
271
  8
0
  6
CONTINUOUS
 10
50.595940457893398
 20
-66.561814435640898
 30
0.0
 40
14.9688
  1
50
 50
272.5
 41
0.9
  7
INSCRIPTIONS
  0
ENDBLK
  5
273
  8
0
  0
BLOCK
  8
0
  2
*U3
 70
     1
 10
0.0
 20
0.0
 30
0.0
  3
*U3
  1

  0
TEXT
  5
293
  8
0
  6
CONTINUOUS
 10
-21.852895868648378
 20
-38.599963190121102
 30
0.0
 40
18.710999999999999
  1
75
 41
0.8
  7
INSCRIPTIONS
  0
ENDBLK
  5
295
  8
0
  0
BLOCK
  8
0
  2
*U4
 70
     1
 10
0.0
 20
0.0
 30
0.0
  3
*U4
  1

  0
TEXT
  5
297
  8
0
  6
CONTINUOUS
 10
3.4968990546230989
 20
-28.461570822114119
 30
0.0
 40
8.0999999999999996
  1
87,5°
 41
0.7
  7
INSCRIPTIONS
  0
ENDBLK
  5
299
  8
0
  0
BLOCK
  8
0
  2
*U5
 70
     1
 10
0.0
 20
0.0
 30
0.0
  3
*U5
  1

  0
TEXT
  5
29B
  8
0
  6
CONTINUOUS
 10
1.5476377216855319
 20
-39.439648727755959
 30
0.0
 40
8.0999999999999996
  1
PP-MD
 41
0.6
  7
INSCRIPTIONS
  0
ENDBLK
  5
29D
  8
0
  0
ENDSEC
  0
SECTION
  2
ENTITIES
  0
LINE
  5
4B
  8
0
 10
-0.0000000000027285
 20
0.0
 30
0.0
 11
-0.0000000000009095
 21
-78.699999999999818
 31
0.0
  0
LINE
  5
4F
  8
0
 10
-0.0000000000009095
 20
-78.699999999999818
 30
0.0
 11
-0.0000000000009095
 21
-162.69999999999979
 31
0.0
  0
LINE
  5
50
  8
0
 10
-37.700000000001637
 20
-52.699999999999811
 30
0.0
 11
-37.700000000001637
 21
-158.11153622505199
 31
0.0
  0
LINE
  5
52
  8
0
 10
37.699999999998909
 20
-102.277990118464
 30
0.0
 11
37.699999999998909
 21
-158.11153622505299
 31
0.0
  0
LINE
  5
53
  8
0
 10
40.0
 20
-42.699999999999811
 30
0.0
 11
-40.000000000002721
 21
-42.699999999999811
 31
0.0
  0
LINE
  5
54
  8
0
 10
-37.700000000001637
 20
-52.699999999999811
 30
0.0
 11
-19.378902442736031
 21
-52.699999999999811
 31
0.0
  0
LINE
  5
55
  8
0
 10
19.378902442736031
 20
-52.699999999999811
 30
0.0
 11
37.028554147561408
 21
-52.699999999999811
 31
0.0
  0
ARC
  5
56
  8
0
 10
-0.0000000000009095
 20
-37.657268160786771
 30
0.0
 40
27.051738636491951
 50
239.34608426254911
 51
300.65391573745092
  0
ARC
  5
57
  8
0
 10
-0.0000000000009095
 20
-37.657268160786771
 30
0.0
 40
29.05173863649194
 50
239.34608426254911
 51
300.65391573745092
  0
ARC
  5
58
  8
0
 10
10.223402096423341
 20
-54.90702966404843
 30
0.0
 40
7.0
 50
300.65391573745092
 51
356.42366562502212
  0
ARC
  5
59
  8
0
 10
10.223402096423341
 20
-54.90702966404843
 30
0.0
 40
9.0
 50
300.65391573745092
 51
356.42366562502212
  0
ARC
  5
5A
  8
0
 10
-10.22340209642516
 20
-54.907029664047514
 30
0.0
 40
7.0
 50
183.57633437497779
 51
239.34608426254911
  0
ARC
  5
5B
  8
0
 10
-10.22340209642516
 20
-54.907029664047514
 30
0.0
 40
9.0
 50
183.57633437497779
 51
239.34608426254911
  0
LINE
  5
5C
  8
0
 10
-17.20977014580512
 20
-55.343677667133299
 30
0.0
 11
-17.936123951852089
 21
-43.722016770413568
 31
0.0
  0
LINE
  5
5D
  8
0
 10
-19.20587530277135
 20
-55.468434239443923
 30
0.0
 11
-19.940026394585399
 21
-43.722016770413568
 31
0.0
  0
LINE
  5
5E
  8
0
 10
17.209770145803301
 20
-55.343677667135118
 30
0.0
 11
17.936123951848462
 21
-43.722016770413568
 31
0.0
  0
LINE
  5
5F
  8
0
 10
19.205875302769531
 20
-55.468434239444832
 30
0.0
 11
19.940026394585399
 21
-43.722016770413568
 31
0.0
  0
LINE
  5
60
  8
0
 10
-19.940026394585399
 20
-43.722016770413568
 30
0.0
 11
-17.936123951852089
 21
-43.722016770413568
 31
0.0
  0
LINE
  5
61
  8
0
 10
17.936123951848462
 20
-43.722016770413568
 30
0.0
 11
19.940026394585399
 21
-43.722016770413568
 31
0.0
  0
LINE
  5
62
  8
0
 10
17.350585836785282
 20
-53.090626611416162
 30
0.0
 11
9.0584549631994378
 21
-53.090626611416162
 31
0.0
  0
LINE
  5
63
  8
0
 10
17.350585836785282
 20
-52.090626611416148
 30
0.0
 11
9.0584549631994378
 21
-52.090626611416148
 31
0.0
  0
LINE
  5
64
  8
0
 10
8.1153077100234441
 20
-53.758251433602709
 30
0.0
 11
4.3820533808111568
 21
-64.351727724987541
 31
0.0
  0
LINE
  5
65
  8
0
 10
7.1721604568474504
 20
-53.425876255790172
 30
0.0
 11
3.2655811223112319
 21
-64.511179294747294
 31
0.0
  0
ARC
  5
66
  8
0
 10
9.0584549631994378
 20
-54.090626611416148
 30
0.0
 40
2.0
 50
90.0
 51
160.58699732404349
  0
ARC
  5
67
  8
0
 10
9.0584549631994378
 20
-54.090626611416148
 30
0.0
 40
0.9999999999998863
 50
90.0
 51
160.58699732404349
  0
LINE
  5
68
  8
0
 10
12.169330608953709
 20
-54.98113689328602
 30
0.0
 11
10.790958604383381
 21
-58.892403006836503
 31
0.0
  0
LINE
  5
69
  8
0
 10
13.224019560268969
 20
-55.352820558322492
 30
0.0
 11
11.845647555700451
 21
-59.264086671873883
 31
0.0
  0
LINE
  5
6A
  8
0
 10
12.169330608953709
 20
-54.98113689328602
 30
0.0
 11
13.224019560268969
 21
-55.352820558322492
 31
0.0
  0
LINE
  5
6B
  8
0
 10
10.790958604383381
 20
-58.892403006836503
 30
0.0
 11
11.845647555700451
 21
-59.264086671873883
 31
0.0
  0
LINE
  5
6C
  8
0
 10
10.66900128920952
 20
-59.238468882054804
 30
0.0
 11
11.723690240524769
 21
-59.610152547092177
 31
0.0
  0
LINE
  5
6D
  8
0
 10
10.66900128921133
 20
-59.238468882054804
 30
0.0
 11
10.925154982726781
 21
-60.193841228093333
 31
0.0
  0
LINE
  5
6E
  8
0
 10
10.925154982726781
 20
-60.193841228093333
 30
0.0
 11
11.723690240524769
 21
-59.610152547092177
 31
0.0
  0
LINE
  5
6F
  8
0
 10
37.902135648760122
 20
-51.821149353212597
 30
0.0
 11
40.0
 21
-42.699999999999811
 31
0.0
  0
LINE
  5
70
  8
0
 10
-37.700000000001637
 20
-52.699999999999811
 30
0.0
 11
-40.000000000002721
 21
-42.699999999999811
 31
0.0
  0
POLYLINE
  5
71
  8
0
 66
     1
 10
0.0
 20
0.0
 30
0.0
 70
     1
  0
VERTEX
  5
252
  8
0
 10
-22.983931674550149
 20
-21.525371376104879
 30
0.0
  0
VERTEX
  5
253
  8
0
 10
-30.141092311157081
 20
-21.52537137610398
 30
0.0
  0
VERTEX
  5
254
  8
0
 10
-30.141092311157081
 20
-23.88244611054688
 30
0.0
  0
VERTEX
  5
255
  8
0
 10
-22.98393167454924
 20
-23.88244611054688
 30
0.0
  0
SEQEND
  5
256
  8
0
  0
POLYLINE
  5
73
  8
0
 66
     1
 10
0.0
 20
0.0
 30
0.0
 70
     1
  0
VERTEX
  5
257
  8
0
 10
-22.378181421267978
 20
-38.126045879221238
 30
0.0
  0
VERTEX
  5
258
  8
0
 10
-26.63684403848038
 20
-38.126045879221238
 30
0.0
  0
VERTEX
  5
259
  8
0
 10
-26.63684403848038
 20
-36.984838338821653
 30
0.0
  0
VERTEX
  5
25A
  8
0
 10
-22.378181421267978
 20
-36.984838338821653
 30
0.0
  0
SEQEND
  5
25B
  8
0
  0
LINE
  5
74
  8
0
 10
-22.728100430414091
 20
-30.977552272389399
 30
0.0
 11
-28.452453732553298
 21
-30.977552272389399
 31
0.0
  0
POLYLINE
  5
75
  8
0
 66
     1
 10
0.0
 20
0.0
 30
0.0
 70
     1
  0
VERTEX
  5
25C
  8
0
 10
-22.728100430414091
 20
-30.977552272389399
 30
0.0
  0
VERTEX
  5
25D
  8
0
 10
-28.884588191850529
 20
-30.977552272389399
 30
0.0
  0
VERTEX
  5
25E
  8
0
 10
-28.884588191850529
 20
-29.416081939439209
 30
0.0
  0
VERTEX
  5
25F
  8
0
 10
-22.728100430414091
 20
-29.416081939439209
 30
0.0
  0
SEQEND
  5
260
  8
0
  0
LINE
  5
76
  8
0
 10
36.225420862978361
 20
-162.69999999999891
 30
0.0
 11
-36.225420862981082
 21
-162.69999999999979
 31
0.0
  0
LINE
  5
77
  8
0
 10
37.699999999998909
 20
-158.11153622505111
 30
0.0
 11
-37.700000000001637
 21
-158.11153622505199
 31
0.0
  0
LINE
  5
78
  8
0
 10
-37.700000000001637
 20
-158.11153622505199
 30
0.0
 11
-36.225420862981082
 21
-162.69999999999979
 31
0.0
  0
LINE
  5
79
  8
0
 10
37.699999999999818
 20
-158.11153622505199
 30
0.0
 11
36.225420862978361
 21
-162.69999999999979
 31
0.0
  0
POLYLINE
  5
7A
  8
0
 66
     1
 10
0.0
 20
0.0
 30
0.0
 70
     1
  0
VERTEX
  5
261
  8
0
 10
22.983931674544689
 20
-21.52537137610307
 30
0.0
  0
VERTEX
  5
262
  8
0
 10
30.14109231115162
 20
-21.525371376102161
 30
0.0
  0
VERTEX
  5
263
  8
0
 10
30.14109231115162
 20
-23.88244611054597
 30
0.0
  0
VERTEX
  5
264
  8
0
 10
22.983931674544689
 20
-23.88244611054597
 30
0.0
  0
SEQEND
  5
265
  8
0
  0
POLYLINE
  5
7B
  8
0
 66
     1
 10
0.0
 20
0.0
 30
0.0
 70
     1
  0
VERTEX
  5
266
  8
0
 10
22.37818142126434
 20
-38.126045879220328
 30
0.0
  0
VERTEX
  5
267
  8
0
 10
26.636844038476742
 20
-38.126045879219419
 30
0.0
  0
VERTEX
  5
268
  8
0
 10
26.636844038476742
 20
-36.984838338819827
 30
0.0
  0
VERTEX
  5
269
  8
0
 10
22.37818142126434
 20
-36.984838338820737
 30
0.0
  0
SEQEND
  5
26A
  8
0
  0
LINE
  5
7C
  8
0
 10
22.728100430408631
 20
-30.977552272387591
 30
0.0
 11
28.452453732547841
 21
-30.977552272387591
 31
0.0
  0
POLYLINE
  5
7D
  8
0
 66
     1
 10
0.0
 20
0.0
 30
0.0
 70
     1
  0
VERTEX
  5
26B
  8
0
 10
22.728100430408631
 20
-30.977552272387591
 30
0.0
  0
VERTEX
  5
26C
  8
0
 10
28.884588191846891
 20
-30.977552272387591
 30
0.0
  0
VERTEX
  5
26D
  8
0
 10
28.884588191846891
 20
-29.41608193943739
 30
0.0
  0
VERTEX
  5
26E
  8
0
 10
22.728100430408631
 20
-29.41608193943739
 30
0.0
  0
SEQEND
  5
26F
  8
0
  0
LINE
  5
7E
  8
0
 10
84.708863985211778
 20
-74.762299501927373
 30
0.0
 11
-0.0000000000009095
 21
-78.699999999999818
 31
0.0
  0
LINE
  5
7F
  8
0
 10
41.061137424879227
 20
-102.131239689249
 30
0.0
 11
37.699999999998909
 21
-102.277990118464
 31
0.0
  0
LINE
  5
80
  8
0
 10
38.862720301666741
 20
-51.779209321523012
 30
0.0
 11
37.902135648760122
 21
-51.821149353212597
 31
0.0
  0
LINE
  5
81
  8
0
 10
45.768819078009066
 20
-49.4757771668028
 30
0.0
 11
48.141713750682356
 21
-103.8240004208555
 31
0.0
  0
LINE
  5
82
  8
0
 10
38.862720301666741
 20
-51.779209321523012
 30
0.0
 11
41.061137424879227
 21
-102.131239689249
 31
0.0
  0
LINE
  5
83
  8
0
 10
45.768819078009066
 20
-49.4757771668028
 30
0.0
 11
38.862720301666741
 21
-51.779209321523012
 31
0.0
  0
LINE
  5
84
  8
0
 10
48.141713750682356
 20
-103.8240004208555
 30
0.0
 11
41.061137424879227
 21
-102.131239689249
 31
0.0
  0
INSERT
  5
85
  8
0
  6
CONTINUOUS
  2
*U2
 10
0.0
 20
0.0
 30
0.0
  0
POLYLINE
  5
87
  8
0
 66
     1
 10
0.0
 20
0.0
 30
0.0
 70
     1
  0
VERTEX
  5
274
  8
0
 10
65.519513816118888
 20
-64.407958483762954
 30
0.0
  0
VERTEX
  5
275
  8
0
 10
65.207322853875667
 20
-57.257609878183978
 30
0.0
  0
VERTEX
  5
276
  8
0
 10
62.852491532295062
 20
-57.360424034074867
 30
0.0
  0
VERTEX
  5
277
  8
0
 10
63.164682494539193
 20
-64.510772639653851
 30
0.0
  0
SEQEND
  5
278
  8
0
  0
POLYLINE
  5
88
  8
0
 66
     1
 10
0.0
 20
0.0
 30
0.0
 70
     1
  0
VERTEX
  5
279
  8
0
 10
48.961061931665419
 20
-65.737243448702657
 30
0.0
  0
VERTEX
  5
27A
  8
0
 10
48.775301677307652
 20
-61.482634134659968
 30
0.0
  0
VERTEX
  5
27B
  8
0
 10
49.915423040999478
 20
-61.432855360890471
 30
0.0
  0
VERTEX
  5
27C
  8
0
 10
50.101183295358169
 20
-65.687464674934063
 30
0.0
  0
SEQEND
  5
27D
  8
0
  0
LINE
  5
89
  8
0
 10
56.087488503754678
 20
-65.075844573203753
 30
0.0
 11
55.837795719652597
 21
-59.356939586995622
 31
0.0
  0
POLYLINE
  5
8A
  8
0
 66
     1
 10
0.0
 20
0.0
 30
0.0
 70
     1
  0
VERTEX
  5
27E
  8
0
 10
56.087488503754678
 20
-65.075844573203753
 30
0.0
  0
VERTEX
  5
27F
  8
0
 10
55.818946279278862
 20
-58.925216423949003
 30
0.0
  0
VERTEX
  5
280
  8
0
 10
57.378930438465432
 20
-58.857106044636787
 30
0.0
  0
VERTEX
  5
281
  8
0
 10
57.647472662941261
 20
-65.007734193891565
 30
0.0
  0
SEQEND
  5
282
  8
0
  0
POLYLINE
  5
8B
  8
0
 66
     1
 10
0.0
 20
0.0
 30
0.0
 70
     1
  0
VERTEX
  5
283
  8
0
 10
66.515825778894396
 20
-87.22725409227246
 30
0.0
  0
VERTEX
  5
284
  8
0
 10
66.828016741139436
 20
-94.377602697850534
 30
0.0
  0
VERTEX
  5
285
  8
0
 10
64.473185419558831
 20
-94.480416853740493
 30
0.0
  0
VERTEX
  5
286
  8
0
 10
64.1609944573147
 20
-87.330068248162434
 30
0.0
  0
SEQEND
  5
287
  8
0
  0
POLYLINE
  5
8C
  8
0
 66
     1
 10
0.0
 20
0.0
 30
0.0
 70
     1
  0
VERTEX
  5
288
  8
0
 10
49.904528984551689
 20
-87.346191630687144
 30
0.0
  0
VERTEX
  5
289
  8
0
 10
50.090289238910373
 20
-91.600800944729826
 30
0.0
  0
VERTEX
  5
28A
  8
0
 10
51.230410602603122
 20
-91.551022170960323
 30
0.0
  0
VERTEX
  5
28B
  8
0
 10
51.044650348244431
 20
-87.296412856917641
 30
0.0
  0
SEQEND
  5
28C
  8
0
  0
LINE
  5
8D
  8
0
 10
57.061482062253162
 20
-87.383964682755717
 30
0.0
 11
57.311174846355243
 21
-93.102869668963876
 31
0.0
  0
POLYLINE
  5
8E
  8
0
 66
     1
 10
0.0
 20
0.0
 30
0.0
 70
     1
  0
VERTEX
  5
28D
  8
0
 10
57.061482062253162
 20
-87.383964682755717
 30
0.0
  0
VERTEX
  5
28E
  8
0
 10
57.330024286728978
 20
-93.534592832010503
 30
0.0
  0
VERTEX
  5
28F
  8
0
 10
58.890008445915562
 20
-93.466482452698315
 30
0.0
  0
VERTEX
  5
290
  8
0
 10
58.621466221439732
 20
-87.315854303443516
 30
0.0
  0
SEQEND
  5
291
  8
0
  0
ARC
  5
8F
  8
0
 10
60.143098274292242
 20
-77.271292415684911
 30
0.0
 40
33.601005790716123
 50
180.4600754351857
 51
228.0925477677913
  0
ARC
  5
90
  8
0
 10
64.143258262544805
 20
-78.778540716541102
 30
0.0
 40
37.620439459785572
 50
134.22861197300711
 51
178.1150425880347
  0
LINE
  5
91
  8
0
 10
36.225420862978361
 20
-110.6999999999998
 30
0.0
 11
-36.225420862981082
 21
-110.6999999999998
 31
0.0
  0
INSERT
  5
94
  8
0
  6
CONTINUOUS
  2
*U3
 10
0.0
 20
0.0
 30
0.0
  0
INSERT
  5
95
  8
0
  6
CONTINUOUS
  2
*U4
 10
0.0
 20
0.0
 30
0.0
  0
INSERT
  5
96
  8
0
  6
CONTINUOUS
  2
*U5
 10
0.0
 20
0.0
 30
0.0
  0
LINE
  5
97
  8
0
 10
37.699999999997999
 20
-16.274089938300669
 30
0.0
 11
-37.700000000001637
 21
-16.274089938300669
 31
0.0
  0
LINE
  5
98
  8
0
 10
-45.000000000000909
 20
-16.274089938300669
 30
0.0
 11
44.999999999997272
 21
-16.274089938300669
 31
0.0
  0
LINE
  5
99
  8
0
 10
-40.000000000000909
 20
0.0
 30
0.0
 11
-40.000000000000909
 21
-1.5
 31
0.0
  0
LINE
  5
9A
  8
0
 10
-39.999999999999091
 20
-13.93425172568277
 30
0.0
 11
-40.0
 21
-14.274089938300669
 31
0.0
  0
LINE
  5
9B
  8
0
 10
40.000000000000909
 20
0.0
 30
0.0
 11
40.000000000000909
 21
-1.5
 31
0.0
  0
LINE
  5
9C
  8
0
 10
39.999999999999091
 20
-13.93425172568277
 30
0.0
 11
40.0
 21
-14.274089938300669
 31
0.0
  0
LINE
  5
9D
  8
0
 10
40.0
 20
-18.299766489235481
 30
0.0
 11
40.0
 21
-42.699999999999811
 31
0.0
  0
LINE
  5
9E
  8
0
 10
-45.0
 20
-14.274089938300669
 30
0.0
 11
44.999999999999091
 21
-14.274089938300669
 31
0.0
  0
LINE
  5
9F
  8
0
 10
-45.000000000000909
 20
-14.274089938300669
 30
0.0
 11
-45.000000000001819
 21
-16.274089938300669
 31
0.0
  0
LINE
  5
A0
  8
0
 10
44.999999999999091
 20
-14.274089938300669
 30
0.0
 11
44.999999999998167
 21
-16.274089938300669
 31
0.0
  0
LINE
  5
A1
  8
0
 10
-43.876028035110721
 20
-1.5
 30
0.0
 11
0.0
 21
-1.5
 31
0.0
  0
LINE
  5
A2
  8
0
 10
0.0
 20
-13.93425172568277
 30
0.0
 11
-45.599321298888754
 21
-13.93425172568277
 31
0.0
  0
LINE
  5
A3
  8
0
 10
-45.599321298888754
 20
-13.93425172568277
 30
0.0
 11
-43.876028035110721
 21
-1.5
 31
0.0
  0
LINE
  5
A4
  8
0
 10
43.876028035110721
 20
-1.5
 30
0.0
 11
0.0
 21
-1.5
 31
0.0
  0
LINE
  5
A5
  8
0
 10
0.0
 20
-13.93425172568277
 30
0.0
 11
45.599321298888754
 21
-13.93425172568277
 31
0.0
  0
LINE
  5
A6
  8
0
 10
45.599321298888754
 20
-13.93425172568277
 30
0.0
 11
43.876028035110721
 21
-1.5
 31
0.0
  0
LINE
  5
A7
  8
0
 10
-39.999999999999091
 20
0.0
 30
0.0
 11
-40.000000000000909
 21
-1.5
 31
0.0
  0
LINE
  5
A8
  8
0
 10
-40.0
 20
-18.299766489231839
 30
0.0
 11
-40.0
 21
-42.699999999999811
 31
0.0
  0
LINE
  5
A9
  8
0
 10
-40.0
 20
0.0
 30
0.0
 11
40.0
 21
0.0
 31
0.0
  0
ARC
  5
AA
  8
0
 10
42.025676550934797
 20
-18.299766489235481
 30
0.0
 40
2.025676550934576
 50
90.0
 51
180.0
  0
ARC
  5
AB
  8
0
 10
-42.025676550936623
 20
-18.299766489231839
 30
0.0
 40
2.025676550934576
 50
0.0
 51
90.0
  0
LINE
  5
AC
  8
0
 10
-0.999999999998181
 20
-1.5
 30
0.0
 11
-0.9999999999990905
 21
-13.93425172568277
 31
0.0
  0
LINE
  5
AE
  8
0
 10
1.0
 20
-1.5
 30
0.0
 11
1.0
 21
-13.93425172568277
 31
0.0
  0
LINE
  5
AF
  8
0
 10
-11.561255671073919
 20
-1.5
 30
0.0
 11
-11.999999999999091
 21
-13.93425172568277
 31
0.0
  0
LINE
  5
B0
  8
0
 10
11.561255671073919
 20
-1.5
 30
0.0
 11
11.999999999999091
 21
-13.93425172568277
 31
0.0
  0
LINE
  5
B1
  8
0
 10
-32.114314359387208
 20
-1.5
 30
0.0
 11
-32.999999999999091
 21
-13.93425172568277
 31
0.0
  0
LINE
  5
B2
  8
0
 10
-33.739249474383541
 20
-1.5
 30
0.0
 11
-34.624935114995417
 21
-13.93425172568277
 31
0.0
  0
LINE
  5
B3
  8
0
 10
32.114314359387208
 20
-1.5
 30
0.0
 11
32.999999999999091
 21
-13.93425172568277
 31
0.0
  0
LINE
  5
B4
  8
0
 10
33.739249474383541
 20
-1.5
 30
0.0
 11
34.624935114995417
 21
-13.93425172568277
 31
0.0
  0
LINE
  5
B5
  8
0
 10
67.855382883521088
 20
-43.50669353962985
 30
0.0
 11
70.664471429846344
 21
-107.84539900949861
 31
0.0
  0
LINE
  5
B6
  8
0
 10
83.532841853804726
 20
-47.826964324394787
 30
0.0
 11
82.034269521432165
 21
-47.89239340544281
 31
0.0
  0
LINE
  5
B7
  8
0
 10
70.411091025453061
 20
-48.39987233817282
 30
0.0
 11
70.071576263510906
 21
-48.414695872809723
 31
0.0
  0
LINE
  5
B8
  8
0
 10
85.905736526477085
 20
-102.17518757844751
 30
0.0
 11
84.407164194104539
 21
-102.2406166594955
 31
0.0
  0
LINE
  5
B9
  8
0
 10
72.783985698125434
 20
-102.7480955922228
 30
0.0
 11
72.444470936183279
 21
-102.7629191268606
 31
0.0
  0
LINE
  5
BA
  8
0
 10
69.853479326685374
 20
-43.419454764900358
 30
0.0
 11
72.662567873009721
 21
-107.75816023476909
 31
0.0
  0
LINE
  5
BB
  8
0
 10
69.853479326683555
 20
-43.419454764899463
 30
0.0
 11
67.855382883520178
 21
-43.506693539628941
 31
0.0
  0
LINE
  5
BC
  8
0
 10
72.662567873009721
 20
-107.75816023476909
 30
0.0
 11
70.664471429846344
 21
-107.84539900949861
 31
0.0
  0
LINE
  5
BD
  8
0
 10
81.865199553129969
 20
-44.020054490163602
 30
0.0
 11
83.220716857767911
 21
-75.06650503246783
 31
0.0
  0
LINE
  5
BE
  8
0
 10
71.597538361788793
 20
-75.573983965196021
 30
0.0
 11
70.166852060733603
 21
-42.805880352449996
 31
0.0
  0
LINE
  5
BF
  8
0
 10
70.166852060733603
 20
-42.805880352449996
 30
0.0
 11
81.865199553129969
 21
-44.020054490163602
 31
0.0
  0
LINE
  5
C0
  8
0
 10
84.576234162406763
 20
-106.1129555747729
 30
0.0
 11
83.220716857767911
 21
-75.06650503246783
 31
0.0
  0
LINE
  5
C1
  8
0
 10
71.597538361788793
 20
-75.573983965196021
 30
0.0
 11
73.028224662843954
 21
-108.34208757794291
 31
0.0
  0
LINE
  5
C2
  8
0
 10
73.028224662843954
 20
-108.34208757794291
 30
0.0
 11
84.576234162406763
 21
-106.1129555747729
 31
0.0
  0
LINE
  5
C3
  8
0
 10
83.532841853804726
 20
-47.826964324396613
 30
0.0
 11
82.034269521432165
 21
-47.89239340544281
 31
0.0
  0
LINE
  5
C4
  8
0
 10
83.532841853804726
 20
-47.826964324395703
 30
0.0
 11
85.905736526477085
 21
-102.1751875784466
 31
0.0
  0
ARC
  5
C5
  8
0
 10
68.510984707460921
 20
-104.9622652274538
 30
0.0
 40
2.025676550934576
 50
2.500000000018515
 51
92.499999999965908
  0
ARC
  5
C6
  8
0
 10
65.961372494487478
 20
-46.566544861978393
 30
0.0
 40
2.025676550934576
 50
272.49999999996589
 51
2.500000000018515
  0
LINE
  5
C7
  8
0
 10
83.177097470403154
 20
-74.067456810888871
 30
0.0
 11
71.55391897442405
 21
-74.574935743615242
 31
0.0
  0
LINE
  5
C8
  8
0
 10
83.264336245133563
 20
-76.065553254049519
 30
0.0
 11
71.641157749154445
 21
-76.573032186777709
 31
0.0
  0
LINE
  5
C9
  8
0
 10
82.716421968222676
 20
-63.516253115028121
 30
0.0
 11
71.074105713405515
 21
-63.585405306214852
 31
0.0
  0
LINE
  5
CA
  8
0
 10
83.725011747314056
 20
-86.616756949907526
 30
0.0
 11
72.12097101017298
 21
-87.562562624177204
 31
0.0
  0
LINE
  5
CB
  8
0
 10
84.260767726724225
 20
-98.887586293497407
 30
0.0
 11
72.676222295786829
 21
-100.27990789035989
 31
0.0
  0
LINE
  5
CC
  8
0
 10
84.331646400948557
 20
-100.51097483032019
 30
0.0
 11
72.747100970011161
 21
-101.9032964271818
 31
0.0
  0
LINE
  5
CD
  8
0
 10
82.180665988812507
 20
-51.245423771440073
 30
0.0
 11
70.518854427791666
 21
-50.868060040033917
 31
0.0
  0
LINE
  5
CE
  8
0
 10
82.109787314587265
 20
-49.622035234616312
 30
0.0
 11
70.447975753567334
 21
-49.244671503210157
 31
0.0
  0
LINE
  5
CF
  8
0
 10
66.049731264639377
 20
-48.590293417690191
 30
0.0
 11
45.768819078009066
 21
-49.4757771668028
 31
0.0
  0
LINE
  5
D0
  8
0
 10
68.422625937309022
 20
-102.9385166717429
 30
0.0
 11
48.141713750682356
 21
-103.8240004208555
 31
0.0
  0
VIEWPORT
  5
1C1
 67
     1
  8
0
  6
CONTINUOUS
 10
128.5
 20
97.5
 30
0.0
 40
348.79216438356173
 41
222.18000000000001
 68
     1
 69
     1
1001
ACAD
1000
MVIEW
1002
{
1070
    16
1010
0.0
1020
0.0
1030
0.0
1010
0.0
1020
0.0
1030
1.0
1040
0.0
1040
222.18000000000001
1040
128.5
1040
97.5
1040
50.0
1040
0.0
1040
0.0
1070
     0
1070
  1000
1070
     1
1070
     1
1070
     0
1070
     0
1070
     0
1070
     0
1040
0.0
1040
0.0
1040
0.0
1040
10.0
1040
10.0
1040
10.0
1040
10.0
1070
     0
1002
{
1002
}
1002
}
  0
VIEWPORT
  5
1C5
 67
     1
  8
0
  6
CONTINUOUS
 10
128.5
 20
97.5
 30
0.0
 40
205.59999999999999
 41
156.0
 68
     2
 69
     2
1001
ACAD
1000
MVIEW
1002
{
1070
    16
1010
30714.317967474461
1020
7339.7553224022467
1030
0.0
1010
-38962.971254248441
1020
-38962.97125424847
1030
38962.97125424847
1040
0.0000000000000005
1040
159.25019174115599
1040
-16456.53814718443
1040
-15560.493851652271
1040
50.0
1040
0.0
1040
0.0
1070
     0
1070
  1000
1070
     1
1070
     3
1070
     0
1070
     0
1070
     0
1070
     0
1040
0.0
1040
0.0
1040
0.0
1040
10.0
1040
10.0
1040
10.0
1040
10.0
1070
     0
1002
{
1002
}
1002
}
  0
ENDSEC
  0
EOF
