  0
SECTION
  2
HEADER
  9
$ACADVER
  1
AC1009
  9
$INSBASE
 10
0.0
 20
0.0
 30
0.0
  9
$EXTMIN
 10
-45.599321298888754
 20
-177.19999999999979
 30
0.0
  9
$EXTMAX
 10
106.3319091515213
 20
0.0
 30
0.0
  9
$LIMMIN
 10
0.0
 20
0.0
  9
$LIMMAX
 10
420.0
 20
297.0
  9
$ORTHOMODE
 70
     0
  9
$REGENMODE
 70
     1
  9
$FILLMODE
 70
     1
  9
$QTEXTMODE
 70
     0
  9
$MIRRTEXT
 70
     0
  9
$DRAGMODE
 70
     2
  9
$LTSCALE
 40
1.0
  9
$OSMODE
 70
   127
  9
$ATTMODE
 70
     1
  9
$TEXTSIZE
 40
2.5
  9
$TRACEWID
 40
1.0
  9
$TEXTSTYLE
  7
STANDARD
  9
$CLAYER
  8
0
  9
$CELTYPE
  6
CONTINUOUS
  9
$CECOLOR
 62
   256
  9
$DIMSCALE
 40
1.0
  9
$DIMASZ
 40
2.5
  9
$DIMEXO
 40
0.625
  9
$DIMDLI
 40
3.75
  9
$DIMRND
 40
0.0
  9
$DIMDLE
 40
0.0
  9
$DIMEXE
 40
1.25
  9
$DIMTP
 40
0.0
  9
$DIMTM
 40
0.0
  9
$DIMTXT
 40
2.5
  9
$DIMCEN
 40
2.5
  9
$DIMTSZ
 40
0.0
  9
$DIMTOL
 70
     0
  9
$DIMLIM
 70
     0
  9
$DIMTIH
 70
     0
  9
$DIMTOH
 70
     0
  9
$DIMSE1
 70
     0
  9
$DIMSE2
 70
     0
  9
$DIMTAD
 70
     1
  9
$DIMZIN
 70
     8
  9
$DIMBLK
  1

  9
$DIMASO
 70
     1
  9
$DIMSHO
 70
     1
  9
$DIMPOST
  1

  9
$DIMAPOST
  1

  9
$DIMALT
 70
     0
  9
$DIMALTD
 70
     3
  9
$DIMALTF
 40
0.03937007874016
  9
$DIMLFAC
 40
1.0
  9
$DIMTOFL
 70
     1
  9
$DIMTVP
 40
0.0
  9
$DIMTIX
 70
     0
  9
$DIMSOXD
 70
     0
  9
$DIMSAH
 70
     0
  9
$DIMBLK1
  1

  9
$DIMBLK2
  1

  9
$DIMSTYLE
  2
STANDARD
  9
$DIMCLRD
 70
     0
  9
$DIMCLRE
 70
     0
  9
$DIMCLRT
 70
     0
  9
$DIMTFAC
 40
1.0
  9
$DIMGAP
 40
0.625
  9
$LUNITS
 70
     2
  9
$LUPREC
 70
     4
  9
$SKETCHINC
 40
1.0
  9
$FILLETRAD
 40
3.0
  9
$AUNITS
 70
     0
  9
$AUPREC
 70
     0
  9
$MENU
  1
.
  9
$ELEVATION
 40
0.0
  9
$PELEVATION
 40
0.0
  9
$THICKNESS
 40
0.0
  9
$LIMCHECK
 70
     0
  9
$BLIPMODE
 70
     0
  9
$CHAMFERA
 40
0.0
  9
$CHAMFERB
 40
0.0
  9
$SKPOLY
 70
     0
  9
$TDCREATE
 40
2455559.2317578131
  9
$TDUPDATE
 40
2457377.7234948729
  9
$TDINDWG
 40
2.9209437500000002
  9
$TDUSRTIMER
 40
2.9209397684999998
  9
$USRTIMER
 70
     1
  9
$ANGBASE
 50
0.0
  9
$ANGDIR
 70
     0
  9
$PDMODE
 70
     0
  9
$PDSIZE
 40
0.0
  9
$PLINEWID
 40
0.0
  9
$COORDS
 70
     2
  9
$SPLFRAME
 70
     0
  9
$SPLINETYPE
 70
     6
  9
$SPLINESEGS
 70
     8
  9
$ATTDIA
 70
     1
  9
$ATTREQ
 70
     1
  9
$HANDLING
 70
     1
  9
$HANDSEED
  5
2D6
  9
$SURFTAB1
 70
     6
  9
$SURFTAB2
 70
     6
  9
$SURFTYPE
 70
     6
  9
$SURFU
 70
     6
  9
$SURFV
 70
     6
  9
$UCSNAME
  2

  9
$UCSORG
 10
0.0
 20
0.0
 30
0.0
  9
$UCSXDIR
 10
1.0
 20
0.0
 30
0.0
  9
$UCSYDIR
 10
0.0
 20
1.0
 30
0.0
  9
$PUCSNAME
  2

  9
$PUCSORG
 10
0.0
 20
0.0
 30
0.0
  9
$PUCSXDIR
 10
1.0
 20
0.0
 30
0.0
  9
$PUCSYDIR
 10
0.0
 20
1.0
 30
0.0
  9
$USERI1
 70
     0
  9
$USERI2
 70
     0
  9
$USERI3
 70
     0
  9
$USERI4
 70
     0
  9
$USERI5
 70
     0
  9
$USERR1
 40
0.0
  9
$USERR2
 40
0.0
  9
$USERR3
 40
0.0
  9
$USERR4
 40
0.0
  9
$USERR5
 40
0.0
  9
$WORLDVIEW
 70
     1
  9
$SHADEDGE
 70
     3
  9
$SHADEDIF
 70
    70
  9
$TILEMODE
 70
     1
  9
$MAXACTVP
 70
    64
  9
$PLIMCHECK
 70
     0
  9
$PEXTMIN
 10
25.699999999999989
 20
19.5
 30
0.0
  9
$PEXTMAX
 10
231.30000000000001
 20
175.5
 30
0.0
  9
$PLIMMIN
 10
-20.0
 20
-7.5
  9
$PLIMMAX
 10
277.0
 20
202.5
  9
$UNITMODE
 70
     0
  9
$VISRETAIN
 70
     1
  9
$PLINEGEN
 70
     0
  9
$PSLTSCALE
 70
     1
  0
ENDSEC
  0
SECTION
  2
TABLES
  0
TABLE
  2
VPORT
 70
     1
  0
VPORT
  2
*ACTIVE
 70
     0
 10
0.0
 20
0.0
 11
1.0
 21
1.0
 12
16458.127776663969
 22
5824.9361560382022
 13
0.0
 23
0.0
 14
10.0
 24
10.0
 15
10.0
 25
10.0
 16
-38962.971254248441
 26
-38962.97125424847
 36
38962.97125424847
 17
30714.317967474461
 27
7339.7553224022467
 37
0.0
 40
45085.451174768772
 41
1.56986301369863
 42
50.0
 43
0.0
 44
0.0
 50
0.0
 51
0.0000000000000313
 71
     0
 72
  1000
 73
     1
 74
     3
 75
     0
 76
     0
 77
     0
 78
     0
  0
ENDTAB
  0
TABLE
  2
LTYPE
 70
     4
  0
LTYPE
  2
CONTINUOUS
 70
     0
  3
Solid line
 72
    65
 73
     0
 40
0.0
  0
ENDTAB
  0
TABLE
  2
LAYER
 70
    10
  0
LAYER
  2
0
 70
     0
 62
     7
  6
CONTINUOUS
  0
ENDTAB
  0
TABLE
  2
STYLE
 70
     4
  0
STYLE
  2
STANDARD
 70
     0
 40
0.0
 41
1.0
 50
0.0
 71
     0
 42
2.5
  3
txt
  4

  0
STYLE
  2
INSCRIPTIONS
 70
     0
 40
0.0
 41
0.9
 50
0.0
 71
     0
 42
2.5
  3
txt
  4

  0
ENDTAB
  0
TABLE
  2
VIEW
 70
     1
  0
ENDTAB
  0
TABLE
  2
UCS
 70
     0
  0
ENDTAB
  0
TABLE
  2
APPID
 70
     7
  0
APPID
  2
ACAD
 70
     0
  0
APPID
  2
ACAD_PSEXT
 70
     0
  0
APPID
  2
ACAECLAYERSTANDARD
 70
     0
  0
APPID
  2
ACAD_NAV_VCDISPLAY
 70
     0
  0
APPID
  2
REVIT
 70
     0
  0
APPID
  2
ACAD_EXEMPT_FROM_CAD_STANDARDS
 70
     0
  0
APPID
  2
ACAD_MLEADERVER
 70
     0
  0
ENDTAB
  0
TABLE
  2
DIMSTYLE
 70
     1
  0
DIMSTYLE
  2
STANDARD
 70
     0
  3

  4

  5

  6

  7

 40
1.0
 41
0.18
 42
0.0625
 43
0.38
 44
0.18
 45
0.0
 46
0.0
 47
0.0
 48
0.0
140
0.18
141
0.09
142
0.0
143
25.399999999999999
144
1.0
145
0.0
146
1.0
147
0.09
 71
     0
 72
     0
 73
     1
 74
     1
 75
     0
 76
     0
 77
     0
 78
     0
170
     0
171
     2
172
     0
173
     0
174
     0
175
     0
176
     0
177
     0
178
     0
  0
ENDTAB
  0
ENDSEC
  0
SECTION
  2
BLOCKS
  0
BLOCK
  8
0
  2
$MODEL_SPACE
 70
     0
 10
0.0
 20
0.0
 30
0.0
  3
$MODEL_SPACE
  1

  0
ENDBLK
  5
D
  8
0
  0
BLOCK
 67
     1
  8
0
  2
$PAPER_SPACE
 70
     0
 10
0.0
 20
0.0
 30
0.0
  3
$PAPER_SPACE
  1

  0
ENDBLK
  5
1BC
 67
     1
  8
0
  0
BLOCK
  8
0
  2
*U2
 70
     1
 10
0.0
 20
0.0
 30
0.0
  3
*U2
  1

  0
TEXT
  5
270
  8
0
  6
CONTINUOUS
 10
54.408110132038338
 20
-55.263359751599729
 30
0.0
 40
14.9688
  1
50
 50
314.99999999999989
 41
0.9
  7
INSCRIPTIONS
  0
ENDBLK
  5
272
  8
0
  0
BLOCK
  8
0
  2
*U3
 70
     1
 10
0.0
 20
0.0
 30
0.0
  3
*U3
  1

  0
TEXT
  5
292
  8
0
  6
CONTINUOUS
 10
-21.852895868649291
 20
-38.599963190121102
 30
0.0
 40
18.710999999999999
  1
75
 41
0.8
  7
INSCRIPTIONS
  0
ENDBLK
  5
294
  8
0
  0
BLOCK
  8
0
  2
*U4
 70
     1
 10
0.0
 20
0.0
 30
0.0
  3
*U4
  1

  0
TEXT
  5
296
  8
0
  6
CONTINUOUS
 10
5.7671520472986231
 20
-28.461570822114119
 30
0.0
 40
8.0999999999999996
  1
45°
 41
0.7
  7
INSCRIPTIONS
  0
ENDBLK
  5
298
  8
0
  0
BLOCK
  8
0
  2
*U5
 70
     1
 10
0.0
 20
0.0
 30
0.0
  3
*U5
  1

  0
TEXT
  5
29A
  8
0
  6
CONTINUOUS
 10
1.5476377216855319
 20
-39.439648727755959
 30
0.0
 40
8.0999999999999996
  1
PP-MD
 41
0.6
  7
INSCRIPTIONS
  0
ENDBLK
  5
29C
  8
0
  0
ENDSEC
  0
SECTION
  2
ENTITIES
  0
LINE
  5
4B
  8
0
 10
-0.000000000001819
 20
0.0
 30
0.0
 11
-0.000000000001819
 21
-177.19999999999979
 31
0.0
  0
LINE
  5
4F
  8
0
 10
-37.700000000002547
 20
-52.699999999999811
 30
0.0
 11
-37.700000000001637
 21
-172.61153622505211
 31
0.0
  0
LINE
  5
51
  8
0
 10
37.699999999998909
 20
-121.6381817717993
 30
0.0
 11
37.699999999998909
 21
-172.61153622505299
 31
0.0
  0
LINE
  5
52
  8
0
 10
40.0
 20
-42.699999999999811
 30
0.0
 11
-40.000000000001819
 21
-42.699999999999811
 31
0.0
  0
LINE
  5
53
  8
0
 10
-37.700000000002547
 20
-52.699999999999811
 30
0.0
 11
-19.378902442736941
 21
-52.699999999999811
 31
0.0
  0
LINE
  5
54
  8
0
 10
19.378902442735122
 20
-52.699999999999811
 30
0.0
 11
36.480230740352461
 21
-52.699999999999811
 31
0.0
  0
ARC
  5
55
  8
0
 10
0.0
 20
-37.657268160786771
 30
0.0
 40
27.051738636491951
 50
239.34608426254911
 51
300.65391573745092
  0
ARC
  5
56
  8
0
 10
0.0
 20
-37.657268160786771
 30
0.0
 40
29.05173863649194
 50
239.34608426254911
 51
300.65391573745092
  0
ARC
  5
57
  8
0
 10
10.223402096422429
 20
-54.90702966404843
 30
0.0
 40
7.0
 50
300.65391573745092
 51
356.42366562502212
  0
ARC
  5
58
  8
0
 10
10.223402096422429
 20
-54.90702966404843
 30
0.0
 40
9.0
 50
300.65391573745092
 51
356.42366562502212
  0
ARC
  5
59
  8
0
 10
-10.223402096426071
 20
-54.907029664047514
 30
0.0
 40
7.0
 50
183.57633437497779
 51
239.34608426254911
  0
ARC
  5
5A
  8
0
 10
-10.223402096426071
 20
-54.907029664047514
 30
0.0
 40
9.0
 50
183.57633437497779
 51
239.34608426254911
  0
LINE
  5
5B
  8
0
 10
-17.209770145806029
 20
-55.343677667133299
 30
0.0
 11
-17.93612395185119
 21
-43.722016770413568
 31
0.0
  0
LINE
  5
5C
  8
0
 10
-19.205875302772249
 20
-55.468434239443923
 30
0.0
 11
-19.940026394586312
 21
-43.722016770413568
 31
0.0
  0
LINE
  5
5D
  8
0
 10
17.209770145802391
 20
-55.343677667135118
 30
0.0
 11
17.936123951847549
 21
-43.722016770413568
 31
0.0
  0
LINE
  5
5E
  8
0
 10
19.205875302768611
 20
-55.468434239444832
 30
0.0
 11
19.940026394584489
 21
-43.722016770413568
 31
0.0
  0
LINE
  5
5F
  8
0
 10
-19.940026394584489
 20
-43.722016770413568
 30
0.0
 11
-17.93612395185119
 21
-43.722016770413568
 31
0.0
  0
LINE
  5
60
  8
0
 10
17.936123951847549
 20
-43.722016770413568
 30
0.0
 11
19.940026394584489
 21
-43.722016770413568
 31
0.0
  0
LINE
  5
61
  8
0
 10
17.350585836784369
 20
-53.090626611416162
 30
0.0
 11
9.0584549632003473
 21
-53.090626611416162
 31
0.0
  0
LINE
  5
62
  8
0
 10
17.350585836784369
 20
-52.090626611416148
 30
0.0
 11
9.0584549632003473
 21
-52.090626611416148
 31
0.0
  0
LINE
  5
63
  8
0
 10
8.1153077100243536
 20
-53.758251433602709
 30
0.0
 11
4.3820533808102482
 21
-64.351727724987541
 31
0.0
  0
LINE
  5
64
  8
0
 10
7.17216045684654
 20
-53.425876255790172
 30
0.0
 11
3.2655811223121409
 21
-64.511179294747294
 31
0.0
  0
ARC
  5
65
  8
0
 10
9.0584549632003473
 20
-54.090626611416148
 30
0.0
 40
2.0
 50
90.0
 51
160.5869973240558
  0
ARC
  5
66
  8
0
 10
9.0584549632003473
 20
-54.090626611416148
 30
0.0
 40
0.9999999999998863
 50
90.0
 51
160.5869973240558
  0
LINE
  5
67
  8
0
 10
12.1693306089528
 20
-54.98113689328602
 30
0.0
 11
10.790958604382469
 21
-58.892403006836503
 31
0.0
  0
LINE
  5
68
  8
0
 10
13.22401956026806
 20
-55.352820558322492
 30
0.0
 11
11.845647555699539
 21
-59.264086671873883
 31
0.0
  0
LINE
  5
69
  8
0
 10
12.1693306089528
 20
-54.98113689328602
 30
0.0
 11
13.22401956026806
 21
-55.352820558322492
 31
0.0
  0
LINE
  5
6A
  8
0
 10
10.790958604384279
 20
-58.892403006836503
 30
0.0
 11
11.845647555699539
 21
-59.264086671873883
 31
0.0
  0
LINE
  5
6B
  8
0
 10
10.66900128921043
 20
-59.238468882054804
 30
0.0
 11
11.723690240525681
 21
-59.610152547092177
 31
0.0
  0
LINE
  5
6C
  8
0
 10
10.66900128921043
 20
-59.238468882054804
 30
0.0
 11
10.92515498272587
 21
-60.193841228093333
 31
0.0
  0
LINE
  5
6D
  8
0
 10
10.92515498272587
 20
-60.193841228093333
 30
0.0
 11
11.723690240525681
 21
-59.610152547092177
 31
0.0
  0
LINE
  5
6E
  8
0
 10
39.176302563835641
 20
-46.281293200709108
 30
0.0
 11
40.0
 21
-42.699999999999811
 31
0.0
  0
LINE
  5
6F
  8
0
 10
-37.700000000002547
 20
-52.699999999999811
 30
0.0
 11
-40.000000000001819
 21
-42.699999999999811
 31
0.0
  0
POLYLINE
  5
70
  8
0
 66
     1
 10
0.0
 20
0.0
 30
0.0
 70
     1
  0
VERTEX
  5
251
  8
0
 10
-22.98393167454924
 20
-21.525371376104879
 30
0.0
  0
VERTEX
  5
252
  8
0
 10
-30.141092311156171
 20
-21.52537137610398
 30
0.0
  0
VERTEX
  5
253
  8
0
 10
-30.141092311156171
 20
-23.88244611054688
 30
0.0
  0
VERTEX
  5
254
  8
0
 10
-22.98393167454924
 20
-23.88244611054688
 30
0.0
  0
SEQEND
  5
255
  8
0
  0
POLYLINE
  5
72
  8
0
 66
     1
 10
0.0
 20
0.0
 30
0.0
 70
     1
  0
VERTEX
  5
256
  8
0
 10
-22.378181421268891
 20
-38.126045879221238
 30
0.0
  0
VERTEX
  5
257
  8
0
 10
-26.636844038481289
 20
-38.126045879221238
 30
0.0
  0
VERTEX
  5
258
  8
0
 10
-26.636844038481289
 20
-36.984838338821653
 30
0.0
  0
VERTEX
  5
259
  8
0
 10
-22.378181421268891
 20
-36.984838338821653
 30
0.0
  0
SEQEND
  5
25A
  8
0
  0
LINE
  5
73
  8
0
 10
-22.728100430413178
 20
-30.977552272389399
 30
0.0
 11
-28.452453732552382
 21
-30.977552272389399
 31
0.0
  0
POLYLINE
  5
74
  8
0
 66
     1
 10
0.0
 20
0.0
 30
0.0
 70
     1
  0
VERTEX
  5
25B
  8
0
 10
-22.728100430413178
 20
-30.977552272389399
 30
0.0
  0
VERTEX
  5
25C
  8
0
 10
-28.884588191851439
 20
-30.977552272389399
 30
0.0
  0
VERTEX
  5
25D
  8
0
 10
-28.884588191851439
 20
-29.416081939439209
 30
0.0
  0
VERTEX
  5
25E
  8
0
 10
-22.728100430413178
 20
-29.416081939439209
 30
0.0
  0
SEQEND
  5
25F
  8
0
  0
LINE
  5
75
  8
0
 10
36.225420862978361
 20
-177.19999999999979
 30
0.0
 11
-36.225420862980172
 21
-177.19999999999979
 31
0.0
  0
LINE
  5
76
  8
0
 10
37.699999999998909
 20
-172.61153622505211
 30
0.0
 11
-37.700000000001637
 21
-172.61153622505211
 31
0.0
  0
LINE
  5
77
  8
0
 10
-37.700000000001637
 20
-172.61153622505211
 30
0.0
 11
-36.225420862980172
 21
-177.19999999999979
 31
0.0
  0
LINE
  5
78
  8
0
 10
37.699999999998909
 20
-172.61153622505211
 30
0.0
 11
36.225420862978361
 21
-177.19999999999979
 31
0.0
  0
POLYLINE
  5
79
  8
0
 66
     1
 10
0.0
 20
0.0
 30
0.0
 70
     1
  0
VERTEX
  5
260
  8
0
 10
22.983931674543779
 20
-21.52537137610307
 30
0.0
  0
VERTEX
  5
261
  8
0
 10
30.14109231115162
 20
-21.525371376102161
 30
0.0
  0
VERTEX
  5
262
  8
0
 10
30.14109231115162
 20
-23.88244611054597
 30
0.0
  0
VERTEX
  5
263
  8
0
 10
22.983931674543779
 20
-23.88244611054597
 30
0.0
  0
SEQEND
  5
264
  8
0
  0
POLYLINE
  5
7A
  8
0
 66
     1
 10
0.0
 20
0.0
 30
0.0
 70
     1
  0
VERTEX
  5
265
  8
0
 10
22.37818142126525
 20
-38.126045879220328
 30
0.0
  0
VERTEX
  5
266
  8
0
 10
26.636844038476742
 20
-38.126045879219419
 30
0.0
  0
VERTEX
  5
267
  8
0
 10
26.636844038476742
 20
-36.984838338819827
 30
0.0
  0
VERTEX
  5
268
  8
0
 10
22.37818142126434
 20
-36.984838338820737
 30
0.0
  0
SEQEND
  5
269
  8
0
  0
LINE
  5
7B
  8
0
 10
22.72810043040954
 20
-30.977552272387591
 30
0.0
 11
28.452453732548751
 21
-30.977552272387591
 31
0.0
  0
POLYLINE
  5
7C
  8
0
 66
     1
 10
0.0
 20
0.0
 30
0.0
 70
     1
  0
VERTEX
  5
26A
  8
0
 10
22.72810043040954
 20
-30.977552272387591
 30
0.0
  0
VERTEX
  5
26B
  8
0
 10
28.884588191845982
 20
-30.977552272387591
 30
0.0
  0
VERTEX
  5
26C
  8
0
 10
28.884588191845982
 20
-29.41608193943739
 30
0.0
  0
VERTEX
  5
26D
  8
0
 10
22.72810043040954
 20
-29.41608193943739
 30
0.0
  0
SEQEND
  5
26E
  8
0
  0
LINE
  5
7D
  8
0
 10
85.418499167331888
 20
-38.281500832665643
 30
0.0
 11
-0.000000000001819
 21
-123.699999999998
 31
0.0
  0
LINE
  5
7E
  8
0
 10
71.559206256075413
 20
-87.778975515722777
 30
0.0
 11
37.699999999998909
 21
-121.6381817717993
 31
0.0
  0
LINE
  5
7F
  8
0
 10
39.456558390206737
 20
-45.776832713241667
 30
0.0
 11
77.923167286753596
 21
-84.243441609790352
 31
0.0
  0
LINE
  5
80
  8
0
 10
36.480230740352461
 20
-52.699999999999811
 30
0.0
 11
71.559206256075413
 21
-87.778975515722777
 31
0.0
  0
LINE
  5
81
  8
0
 10
39.456558390206737
 20
-45.776832713241667
 30
0.0
 11
39.176302563835641
 21
-46.281293200709108
 31
0.0
  0
LINE
  5
82
  8
0
 10
77.923167286753596
 20
-84.243441609790352
 30
0.0
 11
71.559206256075413
 21
-87.778975515722777
 31
0.0
  0
INSERT
  5
83
  8
0
  6
CONTINUOUS
  2
*U2
 10
0.0
 20
0.0
 30
0.0
  0
POLYLINE
  5
85
  8
0
 66
     1
 10
0.0
 20
0.0
 30
0.0
 70
     1
  0
VERTEX
  5
273
  8
0
 10
63.955798563578348
 20
-43.593150548074391
 30
0.0
  0
VERTEX
  5
274
  8
0
 10
58.894921743391023
 20
-38.532273727887969
 30
0.0
  0
VERTEX
  5
275
  8
0
 10
57.228218214902881
 20
-40.198977256376111
 30
0.0
  0
VERTEX
  5
276
  8
0
 10
62.289095035090213
 20
-45.259854076562533
 30
0.0
  0
SEQEND
  5
277
  8
0
  0
POLYLINE
  5
86
  8
0
 66
     1
 10
0.0
 20
0.0
 30
0.0
 70
     1
  0
VERTEX
  5
278
  8
0
 10
52.645679161953012
 20
-55.759930173299381
 30
0.0
  0
VERTEX
  5
279
  8
0
 10
49.634349946537441
 20
-52.7486009578829
 30
0.0
  0
VERTEX
  5
27A
  8
0
 10
50.441305537095111
 20
-51.941645367325229
 30
0.0
  0
VERTEX
  5
27B
  8
0
 10
53.452634752511578
 20
-54.952974582741717
 30
0.0
  0
SEQEND
  5
27C
  8
0
  0
LINE
  5
87
  8
0
 10
57.452997362381211
 20
-50.457751764407021
 30
0.0
 11
53.40526832452997
 21
-46.41002272655669
 31
0.0
  0
POLYLINE
  5
88
  8
0
 66
     1
 10
0.0
 20
0.0
 30
0.0
 70
     1
  0
VERTEX
  5
27D
  8
0
 10
57.452997362381211
 20
-50.457751764407021
 30
0.0
  0
VERTEX
  5
27E
  8
0
 10
53.099703117975878
 20
-46.10445752000259
 30
0.0
  0
VERTEX
  5
27F
  8
0
 10
54.203829379026502
 20
-45.000331258951967
 30
0.0
  0
VERTEX
  5
280
  8
0
 10
58.557123623431828
 20
-49.35362550335639
 30
0.0
  0
SEQEND
  5
281
  8
0
  0
POLYLINE
  5
89
  8
0
 66
     1
 10
0.0
 20
0.0
 30
0.0
 70
     1
  0
VERTEX
  5
282
  8
0
 10
80.106849451921335
 20
-59.74420143641828
 30
0.0
  0
VERTEX
  5
283
  8
0
 10
85.167726272107757
 20
-64.805078256603792
 30
0.0
  0
VERTEX
  5
284
  8
0
 10
83.501022743619615
 20
-66.471781785092844
 30
0.0
  0
VERTEX
  5
285
  8
0
 10
78.440145923433192
 20
-61.410904964906422
 30
0.0
  0
SEQEND
  5
286
  8
0
  0
POLYLINE
  5
8A
  8
0
 66
     1
 10
0.0
 20
0.0
 30
0.0
 70
     1
  0
VERTEX
  5
287
  8
0
 10
67.940069826696345
 20
-71.054320838042713
 30
0.0
  0
VERTEX
  5
288
  8
0
 10
70.951399042112826
 20
-74.065650053458285
 30
0.0
  0
VERTEX
  5
289
  8
0
 10
71.758354632670475
 20
-73.258694462901531
 30
0.0
  0
VERTEX
  5
28A
  8
0
 10
68.747025417254008
 20
-70.24736524748414
 30
0.0
  0
SEQEND
  5
28B
  8
0
  0
LINE
  5
8B
  8
0
 10
73.242248235588704
 20
-66.247002637615424
 30
0.0
 11
77.289977273439035
 21
-70.294731675465755
 31
0.0
  0
POLYLINE
  5
8C
  8
0
 66
     1
 10
0.0
 20
0.0
 30
0.0
 70
     1
  0
VERTEX
  5
28C
  8
0
 10
73.242248235588704
 20
-66.247002637615424
 30
0.0
  0
VERTEX
  5
28D
  8
0
 10
77.595542479993128
 20
-70.600296882019848
 30
0.0
  0
VERTEX
  5
28E
  8
0
 10
78.699668741043752
 20
-69.496170620969224
 30
0.0
  0
VERTEX
  5
28F
  8
0
 10
74.346374496639328
 20
-65.1428763765648
 30
0.0
  0
SEQEND
  5
290
  8
0
  0
LINE
  5
8D
  8
0
 10
39.176302563835641
 20
-46.281293200709108
 30
0.0
 11
36.480230740352461
 21
-52.699999999999811
 31
0.0
  0
ARC
  5
8E
  8
0
 10
66.695148486585822
 20
-92.695898921161628
 30
0.0
 40
40.967967637723909
 50
186.97340487970919
 51
224.9477198606711
  0
ARC
  5
8F
  8
0
 10
104.8829994858788
 20
-92.294371500172019
 30
0.0
 40
79.035770550730533
 50
149.93595403292349
 51
183.89981895380961
  0
LINE
  5
90
  8
0
 10
36.225420862978361
 20
-125.1999999999998
 30
0.0
 11
-36.225420862980172
 21
-125.1999999999998
 31
0.0
  0
INSERT
  5
93
  8
0
  6
CONTINUOUS
  2
*U3
 10
0.0
 20
0.0
 30
0.0
  0
INSERT
  5
94
  8
0
  6
CONTINUOUS
  2
*U4
 10
0.0
 20
0.0
 30
0.0
  0
INSERT
  5
95
  8
0
  6
CONTINUOUS
  2
*U5
 10
0.0
 20
0.0
 30
0.0
  0
LINE
  5
96
  8
0
 10
37.699999999997999
 20
-16.274089938300669
 30
0.0
 11
-37.700000000001637
 21
-16.274089938300669
 31
0.0
  0
LINE
  5
97
  8
0
 10
-45.000000000000909
 20
-16.274089938300669
 30
0.0
 11
44.999999999997272
 21
-16.274089938300669
 31
0.0
  0
LINE
  5
98
  8
0
 10
-40.000000000000909
 20
0.0
 30
0.0
 11
-40.000000000000909
 21
-1.5
 31
0.0
  0
LINE
  5
99
  8
0
 10
-39.999999999999091
 20
-13.93425172568277
 30
0.0
 11
-40.0
 21
-14.274089938300669
 31
0.0
  0
LINE
  5
9A
  8
0
 10
40.000000000000909
 20
0.0
 30
0.0
 11
40.000000000000909
 21
-1.5
 31
0.0
  0
LINE
  5
9B
  8
0
 10
39.999999999999091
 20
-13.93425172568277
 30
0.0
 11
40.0
 21
-14.274089938300669
 31
0.0
  0
LINE
  5
9C
  8
0
 10
40.0
 20
-18.299766489235481
 30
0.0
 11
40.0
 21
-42.699999999999811
 31
0.0
  0
LINE
  5
9D
  8
0
 10
-45.0
 20
-14.274089938300669
 30
0.0
 11
44.999999999999091
 21
-14.274089938300669
 31
0.0
  0
LINE
  5
9E
  8
0
 10
-45.000000000000909
 20
-14.274089938300669
 30
0.0
 11
-45.000000000001819
 21
-16.274089938300669
 31
0.0
  0
LINE
  5
9F
  8
0
 10
44.999999999999091
 20
-14.274089938300669
 30
0.0
 11
44.999999999998167
 21
-16.274089938300669
 31
0.0
  0
LINE
  5
A0
  8
0
 10
-43.876028035110721
 20
-1.5
 30
0.0
 11
0.0
 21
-1.5
 31
0.0
  0
LINE
  5
A1
  8
0
 10
0.0
 20
-13.93425172568277
 30
0.0
 11
-45.599321298888754
 21
-13.93425172568277
 31
0.0
  0
LINE
  5
A2
  8
0
 10
-45.599321298888754
 20
-13.93425172568277
 30
0.0
 11
-43.876028035110721
 21
-1.5
 31
0.0
  0
LINE
  5
A3
  8
0
 10
43.876028035110721
 20
-1.5
 30
0.0
 11
0.0
 21
-1.5
 31
0.0
  0
LINE
  5
A4
  8
0
 10
0.0
 20
-13.93425172568277
 30
0.0
 11
45.599321298888754
 21
-13.93425172568277
 31
0.0
  0
LINE
  5
A5
  8
0
 10
45.599321298888754
 20
-13.93425172568277
 30
0.0
 11
43.876028035110721
 21
-1.5
 31
0.0
  0
LINE
  5
A6
  8
0
 10
-39.999999999999091
 20
0.0
 30
0.0
 11
-40.000000000000909
 21
-1.5
 31
0.0
  0
LINE
  5
A7
  8
0
 10
-40.0
 20
-18.299766489231839
 30
0.0
 11
-40.0
 21
-42.699999999999811
 31
0.0
  0
LINE
  5
A8
  8
0
 10
-40.0
 20
0.0
 30
0.0
 11
40.0
 21
0.0
 31
0.0
  0
ARC
  5
A9
  8
0
 10
42.025676550934797
 20
-18.299766489235481
 30
0.0
 40
2.025676550934576
 50
90.0
 51
180.0
  0
ARC
  5
AA
  8
0
 10
-42.025676550936623
 20
-18.299766489231839
 30
0.0
 40
2.025676550934576
 50
0.0
 51
90.0
  0
LINE
  5
AB
  8
0
 10
-0.999999999998181
 20
-1.5
 30
0.0
 11
-0.9999999999990905
 21
-13.93425172568277
 31
0.0
  0
LINE
  5
AD
  8
0
 10
1.0
 20
-1.5
 30
0.0
 11
1.0
 21
-13.93425172568277
 31
0.0
  0
LINE
  5
AE
  8
0
 10
-11.561255671073919
 20
-1.5
 30
0.0
 11
-11.999999999999091
 21
-13.93425172568277
 31
0.0
  0
LINE
  5
AF
  8
0
 10
11.561255671073919
 20
-1.5
 30
0.0
 11
11.999999999999091
 21
-13.93425172568277
 31
0.0
  0
LINE
  5
B0
  8
0
 10
-32.114314359387208
 20
-1.5
 30
0.0
 11
-32.999999999999091
 21
-13.93425172568277
 31
0.0
  0
LINE
  5
B1
  8
0
 10
-33.739249474383541
 20
-1.5
 30
0.0
 11
-34.624935114995417
 21
-13.93425172568277
 31
0.0
  0
LINE
  5
B2
  8
0
 10
32.114314359387208
 20
-1.5
 30
0.0
 11
32.999999999999091
 21
-13.93425172568277
 31
0.0
  0
LINE
  5
B3
  8
0
 10
33.739249474383541
 20
-1.5
 30
0.0
 11
34.624935114995417
 21
-13.93425172568277
 31
0.0
  0
LINE
  5
B4
  8
0
 10
51.707826885062779
 20
-26.454496406521692
 30
0.0
 11
97.245503593474496
 21
-71.992173114932484
 31
0.0
  0
LINE
  5
B5
  8
0
 10
66.185194719058018
 20
-19.048196384391758
 30
0.0
 11
65.124534547278003
 21
-20.1088565561713
 31
0.0
  0
LINE
  5
B6
  8
0
 10
56.897876258018186
 20
-28.33551484543387
 30
0.0
 11
56.657574353368538
 21
-28.575816750082598
 31
0.0
  0
LINE
  5
B7
  8
0
 10
104.6518036156058
 20
-57.514805280939527
 30
0.0
 11
103.5911434438258
 21
-58.575465452719072
 31
0.0
  0
LINE
  5
B8
  8
0
 10
95.364485154564136
 20
-66.802123741980267
 30
0.0
 11
95.124183249915404
 21
-67.042425646629454
 31
0.0
  0
LINE
  5
B9
  8
0
 10
53.12204044743612
 20
-25.040282844148809
 30
0.0
 11
98.659717155846906
 21
-70.577959552560955
 31
0.0
  0
LINE
  5
BA
  8
0
 10
53.122040447435211
 20
-25.04028284414926
 30
0.0
 11
51.707826885060967
 21
-26.45449640652123
 31
0.0
  0
LINE
  5
BB
  8
0
 10
98.659717155846906
 20
-70.577959552560955
 30
0.0
 11
97.245503593474496
 21
-71.992173114932484
 31
0.0
  0
LINE
  5
BC
  8
0
 10
62.383768839582437
 20
-17.368090848475269
 30
0.0
 11
84.357838995551901
 21
-39.342161004444279
 31
0.0
  0
LINE
  5
BD
  8
0
 10
76.131180706290252
 20
-47.568819293705921
 30
0.0
 11
52.938558197530263
 21
-24.376196784946391
 31
0.0
  0
LINE
  5
BE
  8
0
 10
52.938558197530263
 20
-24.376196784946391
 30
0.0
 11
62.383768839582437
 21
-17.368090848475269
 31
0.0
  0
LINE
  5
BF
  8
0
 10
106.3319091515213
 20
-61.316231160414191
 30
0.0
 11
84.357838995551901
 21
-39.342161004444279
 31
0.0
  0
LINE
  5
C0
  8
0
 10
76.131180706290252
 20
-47.568819293705921
 30
0.0
 11
99.323803215051157
 21
-70.761441802466379
 31
0.0
  0
LINE
  5
C1
  8
0
 10
99.323803215051157
 20
-70.761441802466379
 30
0.0
 11
106.3319091515213
 21
-61.316231160414191
 31
0.0
  0
LINE
  5
C2
  8
0
 10
66.185194719059837
 20
-19.048196384392671
 30
0.0
 11
65.124534547278003
 21
-20.1088565561713
 31
0.0
  0
LINE
  5
C3
  8
0
 10
66.185194719058927
 20
-19.04819638439221
 30
0.0
 11
104.6518036156058
 21
-57.514805280939072
 31
0.0
  0
ARC
  5
C4
  8
0
 10
93.709969687542966
 20
-71.321378460314918
 30
0.0
 40
2.025676550934576
 50
45.0
 51
135.0
  0
ARC
  5
C5
  8
0
 10
52.378621539683991
 20
-29.99003031245093
 30
0.0
 40
2.025676550934576
 50
315.0
 51
45.0
  0
LINE
  5
C6
  8
0
 10
83.650732214367054
 20
-38.635054223259893
 30
0.0
 11
75.424073925104494
 21
-46.861712512520171
 31
0.0
  0
LINE
  5
C7
  8
0
 10
85.064945776737659
 20
-40.049267785630953
 30
0.0
 11
76.838287487476919
 21
-48.275926074892588
 31
0.0
  0
LINE
  5
C8
  8
0
 10
76.182796711504125
 20
-31.167118720396498
 30
0.0
 11
67.645899332052068
 21
-39.083537919468199
 31
0.0
  0
LINE
  5
C9
  8
0
 10
92.532881279599664
 20
-47.517203288492048
 30
0.0
 11
84.616462080528436
 21
-56.054100667944113
 31
0.0
  0
LINE
  5
CA
  8
0
 10
101.21793416513169
 20
-56.202256174024569
 30
0.0
 11
93.617550198346166
 21
-65.055188785762311
 31
0.0
  0
LINE
  5
CB
  8
0
 10
102.3669368039336
 20
-57.351258812826472
 30
0.0
 11
94.766552837148083
 21
-66.20419142456376
 31
0.0
  0
LINE
  5
CC
  8
0
 10
67.497743825972975
 20
-22.482065834865811
 30
0.0
 11
58.644811214235233
 21
-30.082449801650451
 31
0.0
  0
LINE
  5
CD
  8
0
 10
66.348741187170162
 20
-21.333063196062991
 30
0.0
 11
57.49580857543242
 21
-28.933447162848552
 31
0.0
  0
LINE
  5
CE
  8
0
 10
53.810991165340958
 20
-31.42239993810745
 30
0.0
 11
39.456558390205828
 21
-45.776832713243031
 31
0.0
  0
LINE
  5
CF
  8
0
 10
92.277600061886005
 20
-69.889008834658398
 30
0.0
 11
77.923167286753596
 21
-84.243441609790352
 31
0.0
  0
VIEWPORT
  5
1C0
 67
     1
  8
0
  6
CONTINUOUS
 10
128.5
 20
97.5
 30
0.0
 40
348.79216438356173
 41
222.18000000000001
 68
     1
 69
     1
1001
ACAD
1000
MVIEW
1002
{
1070
    16
1010
0.0
1020
0.0
1030
0.0
1010
0.0
1020
0.0
1030
1.0
1040
0.0
1040
222.18000000000001
1040
128.5
1040
97.5
1040
50.0
1040
0.0
1040
0.0
1070
     0
1070
  1000
1070
     1
1070
     1
1070
     0
1070
     0
1070
     0
1070
     0
1040
0.0
1040
0.0
1040
0.0
1040
10.0
1040
10.0
1040
10.0
1040
10.0
1070
     0
1002
{
1002
}
1002
}
  0
VIEWPORT
  5
1C4
 67
     1
  8
0
  6
CONTINUOUS
 10
128.5
 20
97.5
 30
0.0
 40
205.59999999999999
 41
156.0
 68
     2
 69
     2
1001
ACAD
1000
MVIEW
1002
{
1070
    16
1010
30714.317967474461
1020
7339.7553224022467
1030
0.0
1010
-38962.971254248441
1020
-38962.97125424847
1030
38962.97125424847
1040
0.0000000000000005
1040
178.15537212260409
1040
-16444.189880432401
1040
-15559.28417673068
1040
50.0
1040
0.0
1040
0.0
1070
     0
1070
  1000
1070
     1
1070
     3
1070
     0
1070
     0
1070
     0
1070
     0
1040
0.0
1040
0.0
1040
0.0
1040
10.0
1040
10.0
1040
10.0
1040
10.0
1070
     0
1002
{
1002
}
1002
}
  0
ENDSEC
  0
EOF
