  0
SECTION
  2
HEADER
  9
$ACADVER
  1
AC1009
  9
$INSBASE
 10
0.0
 20
0.0
 30
0.0
  9
$EXTMIN
 10
-32.799321298888572
 20
-169.10000000000031
 30
0.0
  9
$EXTMAX
 10
95.018200652540145
 20
0.0
 30
0.0
  9
$LIMMIN
 10
0.0
 20
0.0
  9
$LIMMAX
 10
420.0
 20
297.0
  9
$ORTHOMODE
 70
     0
  9
$REGENMODE
 70
     1
  9
$FILLMODE
 70
     1
  9
$QTEXTMODE
 70
     0
  9
$MIRRTEXT
 70
     0
  9
$DRAGMODE
 70
     2
  9
$LTSCALE
 40
1.0
  9
$OSMODE
 70
   127
  9
$ATTMODE
 70
     1
  9
$TEXTSIZE
 40
2.5
  9
$TRACEWID
 40
1.0
  9
$TEXTSTYLE
  7
STANDARD
  9
$CLAYER
  8
0
  9
$CELTYPE
  6
CONTINUOUS
  9
$CECOLOR
 62
   256
  9
$DIMSCALE
 40
1.0
  9
$DIMASZ
 40
2.5
  9
$DIMEXO
 40
0.625
  9
$DIMDLI
 40
3.75
  9
$DIMRND
 40
0.0
  9
$DIMDLE
 40
0.0
  9
$DIMEXE
 40
1.25
  9
$DIMTP
 40
0.0
  9
$DIMTM
 40
0.0
  9
$DIMTXT
 40
2.5
  9
$DIMCEN
 40
2.5
  9
$DIMTSZ
 40
0.0
  9
$DIMTOL
 70
     0
  9
$DIMLIM
 70
     0
  9
$DIMTIH
 70
     0
  9
$DIMTOH
 70
     0
  9
$DIMSE1
 70
     0
  9
$DIMSE2
 70
     0
  9
$DIMTAD
 70
     1
  9
$DIMZIN
 70
     8
  9
$DIMBLK
  1

  9
$DIMASO
 70
     1
  9
$DIMSHO
 70
     1
  9
$DIMPOST
  1

  9
$DIMAPOST
  1

  9
$DIMALT
 70
     0
  9
$DIMALTD
 70
     3
  9
$DIMALTF
 40
0.03937007874016
  9
$DIMLFAC
 40
1.0
  9
$DIMTOFL
 70
     1
  9
$DIMTVP
 40
0.0
  9
$DIMTIX
 70
     0
  9
$DIMSOXD
 70
     0
  9
$DIMSAH
 70
     0
  9
$DIMBLK1
  1

  9
$DIMBLK2
  1

  9
$DIMSTYLE
  2
STANDARD
  9
$DIMCLRD
 70
     0
  9
$DIMCLRE
 70
     0
  9
$DIMCLRT
 70
     0
  9
$DIMTFAC
 40
1.0
  9
$DIMGAP
 40
0.625
  9
$LUNITS
 70
     2
  9
$LUPREC
 70
     4
  9
$SKETCHINC
 40
1.0
  9
$FILLETRAD
 40
3.0
  9
$AUNITS
 70
     0
  9
$AUPREC
 70
     0
  9
$MENU
  1
.
  9
$ELEVATION
 40
0.0
  9
$PELEVATION
 40
0.0
  9
$THICKNESS
 40
0.0
  9
$LIMCHECK
 70
     0
  9
$BLIPMODE
 70
     0
  9
$CHAMFERA
 40
0.0
  9
$CHAMFERB
 40
0.0
  9
$SKPOLY
 70
     0
  9
$TDCREATE
 40
2455559.2317578131
  9
$TDUPDATE
 40
2457377.7243495141
  9
$TDINDWG
 40
2.9209455093000001
  9
$TDUSRTIMER
 40
2.9209415278000002
  9
$USRTIMER
 70
     1
  9
$ANGBASE
 50
0.0
  9
$ANGDIR
 70
     0
  9
$PDMODE
 70
     0
  9
$PDSIZE
 40
0.0
  9
$PLINEWID
 40
0.0
  9
$COORDS
 70
     2
  9
$SPLFRAME
 70
     0
  9
$SPLINETYPE
 70
     6
  9
$SPLINESEGS
 70
     8
  9
$ATTDIA
 70
     1
  9
$ATTREQ
 70
     1
  9
$HANDLING
 70
     1
  9
$HANDSEED
  5
2D4
  9
$SURFTAB1
 70
     6
  9
$SURFTAB2
 70
     6
  9
$SURFTYPE
 70
     6
  9
$SURFU
 70
     6
  9
$SURFV
 70
     6
  9
$UCSNAME
  2

  9
$UCSORG
 10
0.0
 20
0.0
 30
0.0
  9
$UCSXDIR
 10
1.0
 20
0.0
 30
0.0
  9
$UCSYDIR
 10
0.0
 20
1.0
 30
0.0
  9
$PUCSNAME
  2

  9
$PUCSORG
 10
0.0
 20
0.0
 30
0.0
  9
$PUCSXDIR
 10
1.0
 20
0.0
 30
0.0
  9
$PUCSYDIR
 10
0.0
 20
1.0
 30
0.0
  9
$USERI1
 70
     0
  9
$USERI2
 70
     0
  9
$USERI3
 70
     0
  9
$USERI4
 70
     0
  9
$USERI5
 70
     0
  9
$USERR1
 40
0.0
  9
$USERR2
 40
0.0
  9
$USERR3
 40
0.0
  9
$USERR4
 40
0.0
  9
$USERR5
 40
0.0
  9
$WORLDVIEW
 70
     1
  9
$SHADEDGE
 70
     3
  9
$SHADEDIF
 70
    70
  9
$TILEMODE
 70
     1
  9
$MAXACTVP
 70
    64
  9
$PLIMCHECK
 70
     0
  9
$PEXTMIN
 10
25.699999999999989
 20
19.5
 30
0.0
  9
$PEXTMAX
 10
231.30000000000001
 20
175.5
 30
0.0
  9
$PLIMMIN
 10
-20.0
 20
-7.5
  9
$PLIMMAX
 10
277.0
 20
202.5
  9
$UNITMODE
 70
     0
  9
$VISRETAIN
 70
     1
  9
$PLINEGEN
 70
     0
  9
$PSLTSCALE
 70
     1
  0
ENDSEC
  0
SECTION
  2
TABLES
  0
TABLE
  2
VPORT
 70
     1
  0
VPORT
  2
*ACTIVE
 70
     0
 10
0.0
 20
0.0
 11
1.0
 21
1.0
 12
16458.127776663969
 22
5824.9361560382022
 13
0.0
 23
0.0
 14
10.0
 24
10.0
 15
10.0
 25
10.0
 16
-38962.971254248441
 26
-38962.97125424847
 36
38962.97125424847
 17
30714.317967474461
 27
7339.7553224022467
 37
0.0
 40
45085.451174768772
 41
1.56986301369863
 42
50.0
 43
0.0
 44
0.0
 50
0.0
 51
0.0000000000000313
 71
     0
 72
  1000
 73
     1
 74
     3
 75
     0
 76
     0
 77
     0
 78
     0
  0
ENDTAB
  0
TABLE
  2
LTYPE
 70
     4
  0
LTYPE
  2
CONTINUOUS
 70
     0
  3
Solid line
 72
    65
 73
     0
 40
0.0
  0
ENDTAB
  0
TABLE
  2
LAYER
 70
    10
  0
LAYER
  2
0
 70
     0
 62
     7
  6
CONTINUOUS
  0
ENDTAB
  0
TABLE
  2
STYLE
 70
     4
  0
STYLE
  2
STANDARD
 70
     0
 40
0.0
 41
1.0
 50
0.0
 71
     0
 42
2.5
  3
txt
  4

  0
STYLE
  2
INSCRIPTIONS
 70
     0
 40
0.0
 41
0.9
 50
0.0
 71
     0
 42
2.5
  3
txt
  4

  0
ENDTAB
  0
TABLE
  2
VIEW
 70
     1
  0
ENDTAB
  0
TABLE
  2
UCS
 70
     0
  0
ENDTAB
  0
TABLE
  2
APPID
 70
     7
  0
APPID
  2
ACAD
 70
     0
  0
APPID
  2
ACAD_PSEXT
 70
     0
  0
APPID
  2
ACAECLAYERSTANDARD
 70
     0
  0
APPID
  2
ACAD_NAV_VCDISPLAY
 70
     0
  0
APPID
  2
REVIT
 70
     0
  0
APPID
  2
ACAD_EXEMPT_FROM_CAD_STANDARDS
 70
     0
  0
APPID
  2
ACAD_MLEADERVER
 70
     0
  0
ENDTAB
  0
TABLE
  2
DIMSTYLE
 70
     1
  0
DIMSTYLE
  2
STANDARD
 70
     0
  3

  4

  5

  6

  7

 40
1.0
 41
0.18
 42
0.0625
 43
0.38
 44
0.18
 45
0.0
 46
0.0
 47
0.0
 48
0.0
140
0.18
141
0.09
142
0.0
143
25.399999999999999
144
1.0
145
0.0
146
1.0
147
0.09
 71
     0
 72
     0
 73
     1
 74
     1
 75
     0
 76
     0
 77
     0
 78
     0
170
     0
171
     2
172
     0
173
     0
174
     0
175
     0
176
     0
177
     0
178
     0
  0
ENDTAB
  0
ENDSEC
  0
SECTION
  2
BLOCKS
  0
BLOCK
  8
0
  2
$MODEL_SPACE
 70
     0
 10
0.0
 20
0.0
 30
0.0
  3
$MODEL_SPACE
  1

  0
ENDBLK
  5
D
  8
0
  0
BLOCK
 67
     1
  8
0
  2
$PAPER_SPACE
 70
     0
 10
0.0
 20
0.0
 30
0.0
  3
$PAPER_SPACE
  1

  0
ENDBLK
  5
1BA
 67
     1
  8
0
  0
BLOCK
  8
0
  2
*U2
 70
     1
 10
0.0
 20
0.0
 30
0.0
  3
*U2
  1

  0
TEXT
  5
250
  8
0
  6
CONTINUOUS
 10
-15.61654707468187
 20
-33.503524653646672
 30
0.0
 40
14.9688
  1
50
 41
0.8
  7
INSCRIPTIONS
  0
ENDBLK
  5
252
  8
0
  0
BLOCK
  8
0
  2
*U3
 70
     1
 10
0.0
 20
0.0
 30
0.0
  3
*U3
  1

  0
TEXT
  5
263
  8
0
  6
CONTINUOUS
 10
4.6849136474465922
 20
-25.62213587763199
 30
0.0
 40
6.5
  1
45°
 41
0.7
  7
INSCRIPTIONS
  0
ENDBLK
  5
265
  8
0
  0
BLOCK
  8
0
  2
*U4
 70
     1
 10
0.0
 20
0.0
 30
0.0
  3
*U4
  1

  0
TEXT
  5
267
  8
0
  6
CONTINUOUS
 10
2.9983511961527252
 20
-33.884980422254557
 30
0.0
 40
6.5
  1
PP-MD
 41
0.5
  7
INSCRIPTIONS
  0
ENDBLK
  5
269
  8
0
  0
BLOCK
  8
0
  2
*U5
 70
     1
 10
0.0
 20
0.0
 30
0.0
  3
*U5
  1

  0
TEXT
  5
27A
  8
0
  6
CONTINUOUS
 10
44.062926884323467
 20
-48.51603580298945
 30
0.0
 40
14.9688
  1
50
 50
315.0
 41
0.8
  7
INSCRIPTIONS
  0
ENDBLK
  5
27C
  8
0
  0
ENDSEC
  0
SECTION
  2
ENTITIES
  0
LINE
  5
4B
  8
0
 10
0.0
 20
0.0
 30
0.0
 11
0.0
 21
-104.8000000000002
 31
0.0
  0
LINE
  5
4F
  8
0
 10
0.0
 20
-104.8000000000002
 30
0.0
 11
0.0
 21
-169.10000000000031
 31
0.0
  0
LINE
  5
50
  8
0
 10
25.199999999998909
 20
-115.23818177180139
 30
0.0
 11
25.199999999998909
 21
-164.75137213508879
 31
0.0
  0
LINE
  5
52
  8
0
 10
-25.200000000000731
 20
-44.799999999999272
 30
0.0
 11
-25.200000000000731
 21
-164.75137213508879
 31
0.0
  0
LINE
  5
53
  8
0
 10
-27.200000000000731
 20
-37.799999999999272
 30
0.0
 11
27.199999999998909
 21
-37.800000000000182
 31
0.0
  0
LINE
  5
54
  8
0
 10
-25.200000000000731
 20
-44.799999999999272
 30
0.0
 11
-14.297652442735849
 21
-44.800000000000182
 31
0.0
  0
LINE
  5
55
  8
0
 10
14.29765244273403
 20
-44.800000000000182
 30
0.0
 11
24.852813742385479
 21
-44.800000000000182
 31
0.0
  0
LINE
  5
56
  8
0
 10
-27.200000000000731
 20
-37.799999999999272
 30
0.0
 11
-25.200000000000731
 21
-44.799999999999272
 31
0.0
  0
LINE
  5
57
  8
0
 10
27.199999999998909
 20
-37.800000000000182
 30
0.0
 11
25.971958225628441
 21
-42.098146210300001
 31
0.0
  0
INSERT
  5
58
  8
0
  6
CONTINUOUS
  2
*U2
 10
0.0
 20
0.0
 30
0.0
  0
POLYLINE
  5
5B
  8
0
 66
     1
 10
0.0
 20
0.0
 30
0.0
 70
     1
  0
VERTEX
  5
253
  8
0
 10
-16.337208419650779
 20
-18.500205353369889
 30
0.0
  0
VERTEX
  5
254
  8
0
 10
-23.49436905625771
 20
-18.500205353369889
 30
0.0
  0
VERTEX
  5
255
  8
0
 10
-23.49436905625771
 20
-20.8572800878128
 30
0.0
  0
VERTEX
  5
256
  8
0
 10
-16.337208419650779
 20
-20.8572800878128
 30
0.0
  0
SEQEND
  5
257
  8
0
  0
POLYLINE
  5
5C
  8
0
 66
     1
 10
0.0
 20
0.0
 30
0.0
 70
     1
  0
VERTEX
  5
258
  8
0
 10
-15.73145816637043
 20
-35.100879856487147
 30
0.0
  0
VERTEX
  5
259
  8
0
 10
-19.990120783582821
 20
-35.100879856487147
 30
0.0
  0
VERTEX
  5
25A
  8
0
 10
-19.990120783582821
 20
-33.959672316087563
 30
0.0
  0
VERTEX
  5
25B
  8
0
 10
-15.73145816637043
 20
-33.959672316087563
 30
0.0
  0
SEQEND
  5
25C
  8
0
  0
LINE
  5
5D
  8
0
 10
-16.08137717551471
 20
-27.952386249655319
 30
0.0
 11
-21.80573047765392
 21
-27.952386249655319
 31
0.0
  0
POLYLINE
  5
5E
  8
0
 66
     1
 10
0.0
 20
0.0
 30
0.0
 70
     1
  0
VERTEX
  5
25D
  8
0
 10
-16.08137717551471
 20
-27.952386249655319
 30
0.0
  0
VERTEX
  5
25E
  8
0
 10
-22.237864936952981
 20
-27.952386249655319
 30
0.0
  0
VERTEX
  5
25F
  8
0
 10
-22.237864936952981
 20
-26.390915916705129
 30
0.0
  0
VERTEX
  5
260
  8
0
 10
-16.08137717551471
 20
-26.390915916705129
 30
0.0
  0
SEQEND
  5
261
  8
0
  0
ARC
  5
5F
  8
0
 10
0.0
 20
-36.37008771255023
 30
0.0
 40
18.93621704554436
 50
239.34608426254911
 51
300.65391573745092
  0
ARC
  5
60
  8
0
 10
0.0
 20
-36.37008771255023
 30
0.0
 40
20.93621704554343
 50
239.34608426254911
 51
300.65391573745092
  0
ARC
  5
61
  8
0
 10
7.1563814674964297
 20
-48.444920764834023
 30
0.0
 40
4.8999999999999986
 50
300.65391573745092
 51
356.4236656249181
  0
ARC
  5
62
  8
0
 10
7.1563814674964297
 20
-48.444920764834023
 30
0.0
 40
6.8999999999990704
 50
300.65391573745092
 51
356.4236656249181
  0
ARC
  5
63
  8
0
 10
-7.1563814674973401
 20
-48.444920764833107
 30
0.0
 40
4.8999999999999986
 50
183.57633437508181
 51
239.34608426254911
  0
ARC
  5
64
  8
0
 10
-7.1563814674973401
 20
-48.444920764833107
 30
0.0
 40
6.8999999999990704
 50
183.57633437508181
 51
239.34608426254911
  0
LINE
  5
65
  8
0
 10
-12.046839102064039
 20
-48.750574366993533
 30
0.0
 11
-12.624897104435149
 21
-39.501646329050352
 31
0.0
  0
LINE
  5
66
  8
0
 10
-14.04294425902844
 20
-48.875330939304142
 30
0.0
 11
-14.628799547170271
 21
-39.501646329050352
 31
0.0
  0
LINE
  5
67
  8
0
 10
12.04683910206222
 20
-48.750574366994442
 30
0.0
 11
12.62489710443424
 21
-39.501646329051262
 31
0.0
  0
LINE
  5
68
  8
0
 10
14.042944259026619
 20
-48.875330939305059
 30
0.0
 11
14.62879954716845
 21
-39.501646329051262
 31
0.0
  0
LINE
  5
69
  8
0
 10
12.271473656235679
 20
-45.156421500220858
 30
0.0
 11
6.5488062594977228
 21
-45.156421500220858
 31
0.0
  0
LINE
  5
6A
  8
0
 10
12.333973656235679
 20
-44.156421500220858
 30
0.0
 11
6.5488062594977228
 21
-44.156421500220858
 31
0.0
  0
LINE
  5
6B
  8
0
 10
5.6056590063217291
 20
-45.824046322408321
 30
0.0
 11
2.3140237784045889
 21
-55.164384984567732
 31
0.0
  0
LINE
  5
6C
  8
0
 10
4.6625117531457363
 20
-45.491671144594868
 30
0.0
 11
1.2175382252680711
 21
-55.267122312348867
 31
0.0
  0
ARC
  5
6D
  8
0
 10
6.5488062594977228
 20
-46.156421500220851
 30
0.0
 40
2.0
 50
90.0
 51
160.58699732404349
  0
ARC
  5
6E
  8
0
 10
6.5488062594977228
 20
-46.156421500220851
 30
0.0
 40
0.9999999999998863
 50
90.0
 51
160.58699732404349
  0
LINE
  5
6F
  8
0
 10
9.0311966979979843
 20
-46.4184465748367
 30
0.0
 11
7.6528246934276458
 21
-50.329712688388099
 31
0.0
  0
LINE
  5
70
  8
0
 10
10.085885649313241
 20
-46.790130239874081
 30
0.0
 11
8.7075136447447221
 21
-50.70139635342548
 31
0.0
  0
LINE
  5
71
  8
0
 10
9.0311966979979843
 20
-46.4184465748367
 30
0.0
 11
10.085885649313241
 21
-46.790130239874081
 31
0.0
  0
LINE
  5
72
  8
0
 10
7.6528246934285562
 20
-50.329712688388099
 30
0.0
 11
8.7075136447447221
 21
-50.70139635342548
 31
0.0
  0
LINE
  5
73
  8
0
 10
7.5308673782546967
 20
-50.6757785636064
 30
0.0
 11
8.5855563295699522
 21
-51.047462228643781
 31
0.0
  0
LINE
  5
74
  8
0
 10
7.530867378255607
 20
-50.6757785636064
 30
0.0
 11
7.7870210717710497
 21
-51.63115090964493
 31
0.0
  0
LINE
  5
75
  8
0
 10
7.7870210717710497
 20
-51.63115090964493
 30
0.0
 11
8.5855563295699522
 21
-51.047462228643781
 31
0.0
  0
LINE
  5
76
  8
0
 10
-14.628799547170271
 20
-39.501646329051262
 30
0.0
 11
-12.624897104435149
 21
-39.501646329050352
 31
0.0
  0
LINE
  5
77
  8
0
 10
12.62489710443333
 20
-39.501646329051262
 30
0.0
 11
14.62879954716845
 21
-39.501646329051262
 31
0.0
  0
INSERT
  5
78
  8
0
  6
CONTINUOUS
  2
*U3
 10
0.0
 20
0.0
 30
0.0
  0
INSERT
  5
79
  8
0
  6
CONTINUOUS
  2
*U4
 10
0.0
 20
0.0
 30
0.0
  0
POLYLINE
  5
7A
  8
0
 66
     1
 10
0.0
 20
0.0
 30
0.0
 70
     1
  0
VERTEX
  5
26A
  8
0
 10
16.337208419650779
 20
-18.500205353369889
 30
0.0
  0
VERTEX
  5
26B
  8
0
 10
23.49436905625771
 20
-18.500205353369889
 30
0.0
  0
VERTEX
  5
26C
  8
0
 10
23.49436905625771
 20
-20.8572800878128
 30
0.0
  0
VERTEX
  5
26D
  8
0
 10
16.337208419649869
 20
-20.8572800878128
 30
0.0
  0
SEQEND
  5
26E
  8
0
  0
POLYLINE
  5
7B
  8
0
 66
     1
 10
0.0
 20
0.0
 30
0.0
 70
     1
  0
VERTEX
  5
26F
  8
0
 10
15.731458166368609
 20
-35.100879856487147
 30
0.0
  0
VERTEX
  5
270
  8
0
 10
19.990120783580998
 20
-35.100879856487147
 30
0.0
  0
VERTEX
  5
271
  8
0
 10
19.990120783580998
 20
-33.959672316087563
 30
0.0
  0
VERTEX
  5
272
  8
0
 10
15.731458166368609
 20
-33.959672316087563
 30
0.0
  0
SEQEND
  5
273
  8
0
  0
LINE
  5
7C
  8
0
 10
16.08137717551471
 20
-27.952386249655319
 30
0.0
 11
21.80573047765392
 21
-27.952386249655319
 31
0.0
  0
POLYLINE
  5
7D
  8
0
 66
     1
 10
0.0
 20
0.0
 30
0.0
 70
     1
  0
VERTEX
  5
274
  8
0
 10
16.08137717551471
 20
-27.952386249655319
 30
0.0
  0
VERTEX
  5
275
  8
0
 10
22.237864936951151
 20
-27.952386249655319
 30
0.0
  0
VERTEX
  5
276
  8
0
 10
22.237864936951151
 20
-26.390915916705129
 30
0.0
  0
VERTEX
  5
277
  8
0
 10
16.08137717551471
 20
-26.390915916705129
 30
0.0
  0
SEQEND
  5
278
  8
0
  0
LINE
  5
7E
  8
0
 10
74.104790668350688
 20
-30.69520933165041
 30
0.0
 11
0.0
 21
-104.8000000000002
 31
0.0
  0
LINE
  5
7F
  8
0
 10
60.24549775709238
 20
-80.192684014707993
 30
0.0
 11
25.199999999998909
 21
-115.23818177180139
 31
0.0
  0
LINE
  5
80
  8
0
 10
28.142849891224611
 20
-38.19054121222689
 30
0.0
 11
66.609458787772382
 21
-76.657150108775568
 31
0.0
  0
LINE
  5
81
  8
0
 10
24.852813742385479
 20
-44.800000000000182
 30
0.0
 11
60.24549775709238
 21
-80.192684014707993
 31
0.0
  0
LINE
  5
82
  8
0
 10
28.142849891224611
 20
-38.19054121222689
 30
0.0
 11
25.971958225627532
 21
-42.098146210300001
 31
0.0
  0
LINE
  5
83
  8
0
 10
66.609458787772382
 20
-76.657150108775568
 30
0.0
 11
60.24549775709238
 21
-80.192684014707993
 31
0.0
  0
INSERT
  5
84
  8
0
  6
CONTINUOUS
  2
*U5
 10
0.0
 20
0.0
 30
0.0
  0
POLYLINE
  5
85
  8
0
 66
     1
 10
0.0
 20
0.0
 30
0.0
 70
     1
  0
VERTEX
  5
27D
  8
0
 10
52.706868914026927
 20
-35.942080197628457
 30
0.0
  0
VERTEX
  5
27E
  8
0
 10
47.645992093841407
 20
-30.881203377442041
 30
0.0
  0
VERTEX
  5
27F
  8
0
 10
45.979288565353272
 20
-32.547906905930184
 30
0.0
  0
VERTEX
  5
280
  8
0
 10
51.040165385538778
 20
-37.608783726116599
 30
0.0
  0
SEQEND
  5
281
  8
0
  0
POLYLINE
  5
86
  8
0
 66
     1
 10
0.0
 20
0.0
 30
0.0
 70
     1
  0
VERTEX
  5
282
  8
0
 10
41.396749512403403
 20
-48.108859822853447
 30
0.0
  0
VERTEX
  5
283
  8
0
 10
38.385420296986922
 20
-45.097530607436973
 30
0.0
  0
VERTEX
  5
284
  8
0
 10
39.192375887543683
 20
-44.290575016879302
 30
0.0
  0
VERTEX
  5
285
  8
0
 10
42.203705102960157
 20
-47.301904232295783
 30
0.0
  0
SEQEND
  5
286
  8
0
  0
POLYLINE
  5
87
  8
0
 66
     1
 10
0.0
 20
0.0
 30
0.0
 70
     1
  0
VERTEX
  5
287
  8
0
 10
46.204067712829783
 20
-42.80668141396108
 30
0.0
  0
VERTEX
  5
288
  8
0
 10
41.850773468426269
 20
-38.453387169556663
 30
0.0
  0
VERTEX
  5
289
  8
0
 10
42.954899729475983
 20
-37.349260908506039
 30
0.0
  0
VERTEX
  5
28A
  8
0
 10
47.308193973880407
 20
-41.702555152910463
 30
0.0
  0
SEQEND
  5
28B
  8
0
  0
POLYLINE
  5
88
  8
0
 66
     1
 10
0.0
 20
0.0
 30
0.0
 70
     1
  0
VERTEX
  5
28C
  8
0
 10
68.857919802370816
 20
-52.093131085972352
 30
0.0
  0
VERTEX
  5
28D
  8
0
 10
73.918796622556314
 20
-57.154007906158768
 30
0.0
  0
VERTEX
  5
28E
  8
0
 10
72.252093094068186
 20
-58.82071143464691
 30
0.0
  0
VERTEX
  5
28F
  8
0
 10
67.191216273882674
 20
-53.759834614460488
 30
0.0
  0
SEQEND
  5
290
  8
0
  0
POLYLINE
  5
89
  8
0
 66
     1
 10
0.0
 20
0.0
 30
0.0
 70
     1
  0
VERTEX
  5
291
  8
0
 10
56.691140177144909
 20
-63.403250487596779
 30
0.0
  0
VERTEX
  5
292
  8
0
 10
59.702469392562307
 20
-66.41457970301235
 30
0.0
  0
VERTEX
  5
293
  8
0
 10
60.50942498311997
 20
-65.607624112454687
 30
0.0
  0
VERTEX
  5
294
  8
0
 10
57.498095767703489
 20
-62.596294897038199
 30
0.0
  0
SEQEND
  5
295
  8
0
  0
LINE
  5
8A
  8
0
 10
61.993318586037269
 20
-58.595932287169489
 30
0.0
 11
66.041047623888517
 21
-62.643661325019821
 31
0.0
  0
POLYLINE
  5
8B
  8
0
 66
     1
 10
0.0
 20
0.0
 30
0.0
 70
     1
  0
VERTEX
  5
296
  8
0
 10
61.993318586037269
 20
-58.595932287169489
 30
0.0
  0
VERTEX
  5
297
  8
0
 10
66.346612830442609
 20
-62.949226531573913
 30
0.0
  0
VERTEX
  5
298
  8
0
 10
67.450739091493233
 20
-61.84510027052329
 30
0.0
  0
VERTEX
  5
299
  8
0
 10
63.0974448470879
 20
-57.491806026118859
 30
0.0
  0
SEQEND
  5
29A
  8
0
  0
LINE
  5
8C
  8
0
 10
25.199999999998909
 20
-115.23818177180139
 30
0.0
 11
0.0
 21
-104.8000000000002
 31
0.0
  0
LINE
  5
8D
  8
0
 10
0.0
 20
-104.8000000000002
 30
0.0
 11
25.971958225628441
 21
-42.098146210299078
 31
0.0
  0
LINE
  5
8E
  8
0
 10
-24.000197893514269
 20
-169.0999999999994
 30
0.0
 11
24.00019789351245
 21
-169.10000000000031
 31
0.0
  0
LINE
  5
8F
  8
0
 10
-25.200000000000731
 20
-164.75137213508879
 30
0.0
 11
25.199999999999822
 21
-164.7513721350897
 31
0.0
  0
LINE
  5
90
  8
0
 10
-25.200000000000731
 20
-164.75137213508879
 30
0.0
 11
-24.000197893514269
 21
-169.0999999999994
 31
0.0
  0
LINE
  5
91
  8
0
 10
25.199999999999822
 20
-164.75137213508879
 30
0.0
 11
24.00019789351245
 21
-169.0999999999994
 31
0.0
  0
LINE
  5
92
  8
0
 10
-24.00019789351245
 20
-122.0999999999994
 30
0.0
 11
24.00019789351245
 21
-122.10000000000031
 31
0.0
  0
LINE
  5
95
  8
0
 10
-32.199999999999818
 20
-15.474089938300491
 30
0.0
 11
32.19999999999709
 21
-15.474089938300491
 31
0.0
  0
LINE
  5
96
  8
0
 10
-27.199999999999822
 20
0.0
 30
0.0
 11
-27.199999999999822
 21
-1.5
 31
0.0
  0
LINE
  5
97
  8
0
 10
-27.199999999997999
 20
-13.13425172568259
 30
0.0
 11
-27.199999999998909
 21
-13.4740899383014
 31
0.0
  0
LINE
  5
98
  8
0
 10
27.199999999999822
 20
0.0
 30
0.0
 11
27.199999999999822
 21
-1.5
 31
0.0
  0
LINE
  5
99
  8
0
 10
27.199999999998909
 20
-13.13425172568259
 30
0.0
 11
27.199999999998909
 21
-13.4740899383014
 31
0.0
  0
LINE
  5
9A
  8
0
 10
-32.199999999998909
 20
-13.474089938300491
 30
0.0
 11
32.199999999997999
 21
-13.4740899383014
 31
0.0
  0
LINE
  5
9B
  8
0
 10
-32.199999999999818
 20
-13.4740899383014
 30
0.0
 11
-32.200000000000728
 21
-15.4740899383014
 31
0.0
  0
LINE
  5
9C
  8
0
 10
32.199999999997999
 20
-13.4740899383014
 30
0.0
 11
32.19999999999709
 21
-15.474089938300491
 31
0.0
  0
LINE
  5
9D
  8
0
 10
-31.076028035110539
 20
-1.5
 30
0.0
 11
-0.0000000000009095
 21
-1.5
 31
0.0
  0
LINE
  5
9E
  8
0
 10
-0.0000000000009095
 20
-13.13425172568259
 30
0.0
 11
-32.799321298888572
 21
-13.13425172568259
 31
0.0
  0
LINE
  5
9F
  8
0
 10
-32.799321298888572
 20
-13.13425172568259
 30
0.0
 11
-31.076028035110539
 21
-1.5
 31
0.0
  0
LINE
  5
A0
  8
0
 10
31.07602803510963
 20
-1.5
 30
0.0
 11
-0.0000000000009095
 21
-1.5
 31
0.0
  0
LINE
  5
A1
  8
0
 10
-0.0000000000009095
 20
-13.13425172568259
 30
0.0
 11
32.799321298887662
 21
-13.13425172568259
 31
0.0
  0
LINE
  5
A2
  8
0
 10
32.799321298887662
 20
-13.13425172568259
 30
0.0
 11
31.07602803510963
 21
-1.5
 31
0.0
  0
LINE
  5
A3
  8
0
 10
-27.199999999997999
 20
0.0
 30
0.0
 11
-27.199999999999822
 21
-1.5
 31
0.0
  0
LINE
  5
A4
  8
0
 10
-27.199999999998909
 20
0.0
 30
0.0
 11
27.199999999998909
 21
0.0
 31
0.0
  0
ARC
  5
A5
  8
0
 10
29.225676550933709
 20
-17.499766489235299
 30
0.0
 40
2.025676550934576
 50
90.0
 51
180.0
  0
ARC
  5
A6
  8
0
 10
-29.225676550935528
 20
-17.499766489231661
 30
0.0
 40
2.025676550934576
 50
0.0
 51
90.0
  0
LINE
  5
A7
  8
0
 10
-0.999999999998181
 20
-1.5
 30
0.0
 11
-1.0
 21
-13.13425172568259
 31
0.0
  0
LINE
  5
A9
  8
0
 10
0.9999999999990905
 20
-1.5
 30
0.0
 11
0.9999999999990905
 21
-13.13425172568259
 31
0.0
  0
LINE
  5
AA
  8
0
 10
-11.56125567107483
 20
-1.5
 30
0.0
 11
-12.0
 21
-13.13425172568259
 31
0.0
  0
LINE
  5
AB
  8
0
 10
11.56125567107301
 20
-1.5
 30
0.0
 11
11.999999999998179
 21
-13.13425172568259
 31
0.0
  0
LINE
  5
AC
  8
0
 10
23.843775251720221
 20
-1.5
 30
0.0
 11
24.729460892332099
 21
-13.13425172568259
 31
0.0
  0
LINE
  5
AD
  8
0
 10
25.46871036671655
 20
-1.5
 30
0.0
 11
26.354396007327519
 21
-13.13425172568259
 31
0.0
  0
LINE
  5
AE
  8
0
 10
-23.843775251720221
 20
-1.5
 30
0.0
 11
-24.729460892333009
 21
-13.13425172568259
 31
0.0
  0
LINE
  5
AF
  8
0
 10
-25.46871036671746
 20
-1.5
 30
0.0
 11
-26.354396007329338
 21
-13.13425172568259
 31
0.0
  0
LINE
  5
B0
  8
0
 10
-27.200000000000731
 20
-17.499766489231661
 30
0.0
 11
-27.200000000000731
 21
-37.800000000001091
 31
0.0
  0
LINE
  5
B1
  8
0
 10
27.199999999998909
 20
-17.499766489235299
 30
0.0
 11
27.199999999998909
 21
-37.800000000000182
 31
0.0
  0
LINE
  5
B2
  8
0
 10
40.394118386080663
 20
-18.8682049055069
 30
0.0
 11
85.931795094492372
 21
-64.405881613918609
 31
0.0
  0
LINE
  5
B3
  8
0
 10
54.871486220076797
 20
-11.461904883376519
 30
0.0
 11
53.810826048296803
 21
-12.52256505515652
 31
0.0
  0
LINE
  5
B4
  8
0
 10
45.584167759036973
 20
-20.749223344419541
 30
0.0
 11
45.343865854387332
 21
-20.98952524906781
 31
0.0
  0
LINE
  5
B5
  8
0
 10
93.338095116624558
 20
-49.92851377992519
 30
0.0
 11
92.277434944844572
 21
-50.989173951705197
 31
0.0
  0
LINE
  5
B6
  8
0
 10
84.050776655582936
 20
-59.215832240965483
 30
0.0
 11
83.810474750934191
 21
-59.456134145614669
 31
0.0
  0
LINE
  5
B7
  8
0
 10
41.808331948454899
 20
-17.453991343134469
 30
0.0
 11
87.346008656865706
 21
-62.991668051547087
 31
0.0
  0
LINE
  5
B8
  8
0
 10
41.808331948453997
 20
-17.453991343134469
 30
0.0
 11
40.394118386080663
 21
-18.8682049055069
 31
0.0
  0
LINE
  5
B9
  8
0
 10
87.346008656865706
 20
-62.991668051547087
 30
0.0
 11
85.931795094492372
 21
-64.405881613918609
 31
0.0
  0
LINE
  5
BA
  8
0
 10
51.070060340601231
 20
-9.7817993474609466
 30
0.0
 11
73.044130496569778
 21
-31.755869503430411
 31
0.0
  0
LINE
  5
BB
  8
0
 10
64.817472207309038
 20
-39.982527792691599
 30
0.0
 11
41.624849698549042
 21
-16.789905283931599
 31
0.0
  0
LINE
  5
BC
  8
0
 10
41.624849698549042
 20
-16.789905283931599
 30
0.0
 11
51.070060340601231
 21
-9.7817993474609466
 31
0.0
  0
LINE
  5
BD
  8
0
 10
95.018200652540145
 20
-53.729939659399861
 30
0.0
 11
73.044130496569778
 21
-31.755869503430411
 31
0.0
  0
LINE
  5
BE
  8
0
 10
64.817472207309038
 20
-39.982527792691599
 30
0.0
 11
88.010094716069034
 21
-63.175150301452049
 31
0.0
  0
LINE
  5
BF
  8
0
 10
88.010094716069034
 20
-63.175150301452049
 30
0.0
 11
95.018200652540145
 21
-53.729939659399861
 31
0.0
  0
LINE
  5
C0
  8
0
 10
54.871486220077713
 20
-11.461904883378329
 30
0.0
 11
53.810826048296803
 21
-12.52256505515652
 31
0.0
  0
LINE
  5
C1
  8
0
 10
54.871486220077713
 20
-11.46190488337743
 30
0.0
 11
93.338095116623663
 21
-49.928513779924288
 31
0.0
  0
ARC
  5
C2
  8
0
 10
82.396261188561766
 20
-63.735086959300133
 30
0.0
 40
2.025676550934576
 50
45.0
 51
135.0
  0
ARC
  5
C3
  8
0
 10
41.06491304070277
 20
-22.4037388114366
 30
0.0
 40
2.025676550934576
 50
315.0
 51
45.0
  0
LINE
  5
C4
  8
0
 10
72.337023715385826
 20
-31.048762722245559
 30
0.0
 11
64.110365426122371
 21
-39.275421011505841
 31
0.0
  0
LINE
  5
C5
  8
0
 10
73.751237277756445
 20
-32.462976284617071
 30
0.0
 11
65.524578988495705
 21
-40.689634573878259
 31
0.0
  0
LINE
  5
C6
  8
0
 10
64.869088212522001
 20
-23.58082721938263
 30
0.0
 11
56.332190833070861
 21
-31.497246418453869
 31
0.0
  0
LINE
  5
C7
  8
0
 10
81.219172780617555
 20
-39.93091178747818
 30
0.0
 11
73.302753581547222
 21
-48.467809166929783
 31
0.0
  0
LINE
  5
C8
  8
0
 10
89.904225666150523
 20
-48.615964673010239
 30
0.0
 11
82.303841699364966
 21
-57.468897284747982
 31
0.0
  0
LINE
  5
C9
  8
0
 10
91.053228304952427
 20
-49.764967311812143
 30
0.0
 11
83.45284433816596
 21
-58.61789992354943
 31
0.0
  0
LINE
  5
CA
  8
0
 10
56.184035326991761
 20
-14.895774333851479
 30
0.0
 11
47.33110271525311
 21
-22.496158300636122
 31
0.0
  0
LINE
  5
CB
  8
0
 10
55.035032688188949
 20
-13.746771695048659
 30
0.0
 11
46.182100076451199
 21
-21.347155661834218
 31
0.0
  0
LINE
  5
CC
  8
0
 10
42.497282666359752
 20
-23.83610843709312
 30
0.0
 11
28.142849891223701
 21
-38.190541212228709
 31
0.0
  0
LINE
  5
CD
  8
0
 10
80.963891562904791
 20
-62.302717333643614
 30
0.0
 11
66.609458787772382
 21
-76.657150108775568
 31
0.0
  0
VIEWPORT
  5
1BE
 67
     1
  8
0
  6
CONTINUOUS
 10
128.5
 20
97.5
 30
0.0
 40
348.79216438356173
 41
222.18000000000001
 68
     1
 69
     1
1001
ACAD
1000
MVIEW
1002
{
1070
    16
1010
0.0
1020
0.0
1030
0.0
1010
0.0
1020
0.0
1030
1.0
1040
0.0
1040
222.18000000000001
1040
128.5
1040
97.5
1040
50.0
1040
0.0
1040
0.0
1070
     0
1070
  1000
1070
     1
1070
     1
1070
     0
1070
     0
1070
     0
1070
     0
1040
0.0
1040
0.0
1040
0.0
1040
10.0
1040
10.0
1040
10.0
1040
10.0
1070
     0
1002
{
1002
}
1002
}
  0
VIEWPORT
  5
1C2
 67
     1
  8
0
  6
CONTINUOUS
 10
128.5
 20
97.5
 30
0.0
 40
205.59999999999999
 41
156.0
 68
     2
 69
     2
1001
ACAD
1000
MVIEW
1002
{
1070
    16
1010
30714.317967474461
1020
7339.7553224022467
1030
0.0
1010
-38962.971254248441
1020
-38962.97125424847
1030
38962.97125424847
1040
0.0000000000000005
1040
160.71842085780941
1040
-16446.528179496599
1040
-15557.327383172091
1040
50.0
1040
0.0
1040
0.0
1070
     0
1070
  1000
1070
     1
1070
     3
1070
     0
1070
     0
1070
     0
1070
     0
1040
0.0
1040
0.0
1040
0.0
1040
10.0
1040
10.0
1040
10.0
1040
10.0
1070
     0
1002
{
1002
}
1002
}
  0
ENDSEC
  0
EOF
