  0
SECTION
  2
HEADER
  9
$ACADVER
  1
AC1009
  9
$INSBASE
 10
0.0
 20
0.0
 30
0.0
  9
$EXTMIN
 10
-66.475022670399085
 20
-227.5000000000002
 30
0.0
  9
$EXTMAX
 10
145.36826959573321
 20
0.0
 30
0.0
  9
$LIMMIN
 10
0.0
 20
0.0
  9
$LIMMAX
 10
420.0
 20
297.0
  9
$ORTHOMODE
 70
     0
  9
$REGENMODE
 70
     1
  9
$FILLMODE
 70
     1
  9
$QTEXTMODE
 70
     0
  9
$MIRRTEXT
 70
     0
  9
$DRAGMODE
 70
     2
  9
$LTSCALE
 40
1.0
  9
$OSMODE
 70
   127
  9
$ATTMODE
 70
     1
  9
$TEXTSIZE
 40
2.5
  9
$TRACEWID
 40
1.0
  9
$TEXTSTYLE
  7
STANDARD
  9
$CLAYER
  8
0
  9
$CELTYPE
  6
CONTINUOUS
  9
$CECOLOR
 62
   256
  9
$DIMSCALE
 40
1.0
  9
$DIMASZ
 40
2.5
  9
$DIMEXO
 40
0.625
  9
$DIMDLI
 40
3.75
  9
$DIMRND
 40
0.0
  9
$DIMDLE
 40
0.0
  9
$DIMEXE
 40
1.25
  9
$DIMTP
 40
0.0
  9
$DIMTM
 40
0.0
  9
$DIMTXT
 40
2.5
  9
$DIMCEN
 40
2.5
  9
$DIMTSZ
 40
0.0
  9
$DIMTOL
 70
     0
  9
$DIMLIM
 70
     0
  9
$DIMTIH
 70
     0
  9
$DIMTOH
 70
     0
  9
$DIMSE1
 70
     0
  9
$DIMSE2
 70
     0
  9
$DIMTAD
 70
     1
  9
$DIMZIN
 70
     8
  9
$DIMBLK
  1

  9
$DIMASO
 70
     1
  9
$DIMSHO
 70
     1
  9
$DIMPOST
  1

  9
$DIMAPOST
  1

  9
$DIMALT
 70
     0
  9
$DIMALTD
 70
     3
  9
$DIMALTF
 40
0.03937007874016
  9
$DIMLFAC
 40
1.0
  9
$DIMTOFL
 70
     1
  9
$DIMTVP
 40
0.0
  9
$DIMTIX
 70
     0
  9
$DIMSOXD
 70
     0
  9
$DIMSAH
 70
     0
  9
$DIMBLK1
  1

  9
$DIMBLK2
  1

  9
$DIMSTYLE
  2
STANDARD
  9
$DIMCLRD
 70
     0
  9
$DIMCLRE
 70
     0
  9
$DIMCLRT
 70
     0
  9
$DIMTFAC
 40
1.0
  9
$DIMGAP
 40
0.625
  9
$LUNITS
 70
     2
  9
$LUPREC
 70
     4
  9
$SKETCHINC
 40
1.0
  9
$FILLETRAD
 40
3.0
  9
$AUNITS
 70
     0
  9
$AUPREC
 70
     0
  9
$MENU
  1
.
  9
$ELEVATION
 40
0.0
  9
$PELEVATION
 40
0.0
  9
$THICKNESS
 40
0.0
  9
$LIMCHECK
 70
     0
  9
$BLIPMODE
 70
     0
  9
$CHAMFERA
 40
0.0
  9
$CHAMFERB
 40
0.0
  9
$SKPOLY
 70
     0
  9
$TDCREATE
 40
2455559.2317578131
  9
$TDUPDATE
 40
2457377.7269185418
  9
$TDINDWG
 40
2.9209616319
  9
$TDUSRTIMER
 40
2.9209576505000001
  9
$USRTIMER
 70
     1
  9
$ANGBASE
 50
0.0
  9
$ANGDIR
 70
     0
  9
$PDMODE
 70
     0
  9
$PDSIZE
 40
0.0
  9
$PLINEWID
 40
0.0
  9
$COORDS
 70
     2
  9
$SPLFRAME
 70
     0
  9
$SPLINETYPE
 70
     6
  9
$SPLINESEGS
 70
     8
  9
$ATTDIA
 70
     1
  9
$ATTREQ
 70
     1
  9
$HANDLING
 70
     1
  9
$HANDSEED
  5
2D8
  9
$SURFTAB1
 70
     6
  9
$SURFTAB2
 70
     6
  9
$SURFTYPE
 70
     6
  9
$SURFU
 70
     6
  9
$SURFV
 70
     6
  9
$UCSNAME
  2

  9
$UCSORG
 10
0.0
 20
0.0
 30
0.0
  9
$UCSXDIR
 10
1.0
 20
0.0
 30
0.0
  9
$UCSYDIR
 10
0.0
 20
1.0
 30
0.0
  9
$PUCSNAME
  2

  9
$PUCSORG
 10
0.0
 20
0.0
 30
0.0
  9
$PUCSXDIR
 10
1.0
 20
0.0
 30
0.0
  9
$PUCSYDIR
 10
0.0
 20
1.0
 30
0.0
  9
$USERI1
 70
     0
  9
$USERI2
 70
     0
  9
$USERI3
 70
     0
  9
$USERI4
 70
     0
  9
$USERI5
 70
     0
  9
$USERR1
 40
0.0
  9
$USERR2
 40
0.0
  9
$USERR3
 40
0.0
  9
$USERR4
 40
0.0
  9
$USERR5
 40
0.0
  9
$WORLDVIEW
 70
     1
  9
$SHADEDGE
 70
     3
  9
$SHADEDIF
 70
    70
  9
$TILEMODE
 70
     1
  9
$MAXACTVP
 70
    64
  9
$PLIMCHECK
 70
     0
  9
$PEXTMIN
 10
25.699999999999989
 20
19.5
 30
0.0
  9
$PEXTMAX
 10
231.30000000000001
 20
175.5
 30
0.0
  9
$PLIMMIN
 10
-20.0
 20
-7.5
  9
$PLIMMAX
 10
277.0
 20
202.5
  9
$UNITMODE
 70
     0
  9
$VISRETAIN
 70
     1
  9
$PLINEGEN
 70
     0
  9
$PSLTSCALE
 70
     1
  0
ENDSEC
  0
SECTION
  2
TABLES
  0
TABLE
  2
VPORT
 70
     1
  0
VPORT
  2
*ACTIVE
 70
     0
 10
0.0
 20
0.0
 11
1.0
 21
1.0
 12
16458.127776663969
 22
5824.9361560382022
 13
0.0
 23
0.0
 14
10.0
 24
10.0
 15
10.0
 25
10.0
 16
-38962.971254248441
 26
-38962.97125424847
 36
38962.97125424847
 17
30714.317967474461
 27
7339.7553224022467
 37
0.0
 40
45085.451174768772
 41
1.56986301369863
 42
50.0
 43
0.0
 44
0.0
 50
0.0
 51
0.0000000000000313
 71
     0
 72
  1000
 73
     1
 74
     3
 75
     0
 76
     0
 77
     0
 78
     0
  0
ENDTAB
  0
TABLE
  2
LTYPE
 70
     4
  0
LTYPE
  2
CONTINUOUS
 70
     0
  3
Solid line
 72
    65
 73
     0
 40
0.0
  0
ENDTAB
  0
TABLE
  2
LAYER
 70
    10
  0
LAYER
  2
0
 70
     0
 62
     7
  6
CONTINUOUS
  0
ENDTAB
  0
TABLE
  2
STYLE
 70
     4
  0
STYLE
  2
STANDARD
 70
     0
 40
0.0
 41
1.0
 50
0.0
 71
     0
 42
2.5
  3
txt
  4

  0
STYLE
  2
INSCRIPTIONS
 70
     0
 40
0.0
 41
0.9
 50
0.0
 71
     0
 42
2.5
  3
txt
  4

  0
ENDTAB
  0
TABLE
  2
VIEW
 70
     1
  0
ENDTAB
  0
TABLE
  2
UCS
 70
     0
  0
ENDTAB
  0
TABLE
  2
APPID
 70
     7
  0
APPID
  2
ACAD
 70
     0
  0
APPID
  2
ACAD_PSEXT
 70
     0
  0
APPID
  2
ACAECLAYERSTANDARD
 70
     0
  0
APPID
  2
ACAD_NAV_VCDISPLAY
 70
     0
  0
APPID
  2
REVIT
 70
     0
  0
APPID
  2
ACAD_EXEMPT_FROM_CAD_STANDARDS
 70
     0
  0
APPID
  2
ACAD_MLEADERVER
 70
     0
  0
ENDTAB
  0
TABLE
  2
DIMSTYLE
 70
     1
  0
DIMSTYLE
  2
STANDARD
 70
     0
  3

  4

  5

  6

  7

 40
1.0
 41
0.18
 42
0.0625
 43
0.38
 44
0.18
 45
0.0
 46
0.0
 47
0.0
 48
0.0
140
0.18
141
0.09
142
0.0
143
25.399999999999999
144
1.0
145
0.0
146
1.0
147
0.09
 71
     0
 72
     0
 73
     1
 74
     1
 75
     0
 76
     0
 77
     0
 78
     0
170
     0
171
     2
172
     0
173
     0
174
     0
175
     0
176
     0
177
     0
178
     0
  0
ENDTAB
  0
ENDSEC
  0
SECTION
  2
BLOCKS
  0
BLOCK
  8
0
  2
$MODEL_SPACE
 70
     0
 10
0.0
 20
0.0
 30
0.0
  3
$MODEL_SPACE
  1

  0
ENDBLK
  5
D
  8
0
  0
BLOCK
 67
     1
  8
0
  2
$PAPER_SPACE
 70
     0
 10
0.0
 20
0.0
 30
0.0
  3
$PAPER_SPACE
  1

  0
ENDBLK
  5
1BE
 67
     1
  8
0
  0
BLOCK
  8
0
  2
*U2
 70
     1
 10
0.0
 20
0.0
 30
0.0
  3
*U2
  1

  0
TEXT
  5
254
  8
0
  6
CONTINUOUS
 10
-28.274320855832229
 20
-41.725765796590991
 30
0.0
 40
20.020769999999992
  1
110
 41
0.8
  7
INSCRIPTIONS
  0
ENDBLK
  5
256
  8
0
  0
BLOCK
  8
0
  2
*U3
 70
     1
 10
0.0
 20
0.0
 30
0.0
  3
*U3
  1

  0
TEXT
  5
267
  8
0
  6
CONTINUOUS
 10
11.21091224451084
 20
-30.141160189085529
 30
0.0
 40
8.0999999999999996
  1
45°
 41
0.7
  7
INSCRIPTIONS
  0
ENDBLK
  5
269
  8
0
  0
BLOCK
  8
0
  2
*U4
 70
     1
 10
0.0
 20
0.0
 30
0.0
  3
*U4
  1

  0
TEXT
  5
26B
  8
0
  6
CONTINUOUS
 10
6.991397918898655
 20
-41.119238094727137
 30
0.0
 40
8.0999999999999996
  1
PP-MD
 41
0.6
  7
INSCRIPTIONS
  0
ENDBLK
  5
26D
  8
0
  0
BLOCK
  8
0
  2
*U5
 70
     1
 10
0.0
 20
0.0
 30
0.0
  3
*U5
  1

  0
TEXT
  5
27E
  8
0
  6
CONTINUOUS
 10
81.914285826789381
 20
-68.773020737758344
 30
0.0
 40
18.710999999999999
  1
75
 50
315.0
 41
0.8
  7
INSCRIPTIONS
  0
ENDBLK
  5
280
  8
0
  0
ENDSEC
  0
SECTION
  2
ENTITIES
  0
LINE
  5
4B
  8
0
 10
0.0
 20
0.0
 30
0.0
 11
-0.000000000001819
 21
-164.50000000000111
 31
0.0
  0
LINE
  5
4F
  8
0
 10
-0.000000000001819
 20
-164.50000000000111
 30
0.0
 11
-0.000000000001819
 21
-227.5000000000002
 31
0.0
  0
LINE
  5
50
  8
0
 10
58.412000000000262
 20
-46.5
 30
0.0
 11
-58.412000000002081
 21
-46.50000000000022
 31
0.0
  0
LINE
  5
52
  8
0
 10
-55.100000000002183
 20
-60.900000000000311
 30
0.0
 11
-27.905619517543531
 21
-60.900000000000311
 31
0.0
  0
LINE
  5
53
  8
0
 10
27.905619517536248
 20
-60.900000000000311
 30
0.0
 11
51.963491861037248
 21
-60.900000000000091
 31
0.0
  0
ARC
  5
54
  8
0
 10
-0.000000000003638
 20
-39.238466151533203
 30
0.0
 40
38.954503636548402
 50
239.34608426254911
 51
300.65391573744421
  0
ARC
  5
55
  8
0
 10
-0.000000000003638
 20
-39.238466151533203
 30
0.0
 40
41.834503636548398
 50
239.34608426254911
 51
300.65391573744421
  0
ARC
  5
56
  8
0
 10
14.721699018846261
 20
-64.078122716230382
 30
0.0
 40
10.08
 50
300.65391573744421
 51
356.4236656249962
  0
ARC
  5
57
  8
0
 10
14.721699018846261
 20
-64.078122716230382
 30
0.0
 40
12.960000000000001
 50
300.65391573744421
 51
356.4236656249962
  0
ARC
  5
58
  8
0
 10
-14.721699018855359
 20
-64.078122716228791
 30
0.0
 40
10.08
 50
183.5763343750038
 51
239.34608426254911
  0
ARC
  5
59
  8
0
 10
-14.721699018855359
 20
-64.078122716228791
 30
0.0
 40
12.960000000000001
 50
183.5763343750038
 51
239.34608426254911
  0
LINE
  5
5A
  8
0
 10
-24.782069009963379
 20
-64.706895840673042
 30
0.0
 11
-25.82801849066891
 21
-47.971704149396821
 31
0.0
  0
LINE
  5
5B
  8
0
 10
-27.656460435993719
 20
-64.886545304799938
 30
0.0
 11
-28.713638008206551
 21
-47.971704149396821
 31
0.0
  0
LINE
  5
5C
  8
0
 10
24.782069009953378
 20
-64.706895840674633
 30
0.0
 11
25.828018490658
 21
-47.971704149396587
 31
0.0
  0
LINE
  5
5D
  8
0
 10
27.656460435984631
 20
-64.88654530480153
 30
0.0
 11
28.713638008199268
 21
-47.971704149396587
 31
0.0
  0
LINE
  5
5E
  8
0
 10
-28.713638008204729
 20
-47.971704149396821
 30
0.0
 11
-25.82801849066891
 21
-47.971704149396821
 31
0.0
  0
LINE
  5
5F
  8
0
 10
25.828018490658
 20
-47.971704149396821
 30
0.0
 11
28.713638008199268
 21
-47.971704149396821
 31
0.0
  0
LINE
  5
60
  8
0
 10
24.984843604966951
 20
-61.462502320439619
 30
0.0
 11
13.044175147004349
 21
-61.462502320439619
 31
0.0
  0
LINE
  5
61
  8
0
 10
24.984843604966951
 20
-60.022502320439798
 30
0.0
 11
13.044175147004349
 21
-60.022502320439571
 31
0.0
  0
LINE
  5
62
  8
0
 10
11.68604310243154
 20
-62.42388206438909
 30
0.0
 11
6.310156868365083
 21
-77.678487923983084
 31
0.0
  0
LINE
  5
63
  8
0
 10
10.327911057856911
 20
-61.9452618083385
 30
0.0
 11
4.7024368161255552
 21
-77.908098184436767
 31
0.0
  0
ARC
  5
64
  8
0
 10
13.044175147004349
 20
-62.90250232043968
 30
0.0
 40
2.879999999999999
 50
90.0
 51
160.58699732406811
  0
ARC
  5
65
  8
0
 10
13.044175147004349
 20
-62.90250232043968
 30
0.0
 40
1.4399999999998361
 50
90.0
 51
160.58699732406811
  0
LINE
  5
66
  8
0
 10
17.523836076889889
 20
-64.184837126332013
 30
0.0
 11
15.538980390309
 21
-69.817060329844935
 31
0.0
  0
LINE
  5
67
  8
0
 10
19.042588166783389
 20
-64.720061603985641
 30
0.0
 11
17.057732480205232
 21
-70.352284807499473
 31
0.0
  0
LINE
  5
68
  8
0
 10
17.523836076889889
 20
-64.184837126332013
 30
0.0
 11
19.042588166783389
 21
-64.720061603985641
 31
0.0
  0
LINE
  5
69
  8
0
 10
15.538980390309909
 20
-69.817060329845162
 30
0.0
 11
17.057732480205232
 21
-70.352284807499473
 31
0.0
  0
LINE
  5
6A
  8
0
 10
15.36336185645996
 20
-70.315395190160189
 30
0.0
 11
16.882113946353449
 21
-70.850619667813817
 31
0.0
  0
LINE
  5
6B
  8
0
 10
15.36336185646087
 20
-70.315395190160189
 30
0.0
 11
15.732223175123179
 21
-71.691131368455217
 31
0.0
  0
LINE
  5
6C
  8
0
 10
15.732223175123179
 20
-71.691131368455217
 30
0.0
 11
16.882113946353449
 21
-70.850619667813817
 31
0.0
  0
LINE
  5
6D
  8
0
 10
57.359675034455897
 20
-50.705526353645382
 30
0.0
 11
58.412000000000262
 21
-46.5
 31
0.0
  0
LINE
  5
6E
  8
0
 10
-55.100000000002183
 20
-60.900000000000311
 30
0.0
 11
-58.412000000002081
 21
-46.50000000000022
 31
0.0
  0
LINE
  5
6F
  8
0
 10
-55.100000000002183
 20
-60.900000000000311
 30
0.0
 11
-55.100000000002183
 21
-220.0667564458893
 31
0.0
  0
LINE
  5
70
  8
0
 10
55.099999999998552
 20
-162.71585130146579
 30
0.0
 11
55.099999999998552
 21
-220.0667564458893
 31
0.0
  0
INSERT
  5
71
  8
0
  6
CONTINUOUS
  2
*U2
 10
0.0
 20
0.0
 30
0.0
  0
POLYLINE
  5
74
  8
0
 66
     1
 10
0.0
 20
0.0
 30
0.0
 70
     1
  0
VERTEX
  5
257
  8
0
 10
-30.831397987062701
 20
-23.20496074307562
 30
0.0
  0
VERTEX
  5
258
  8
0
 10
-37.988558623670542
 20
-23.204960743075159
 30
0.0
  0
VERTEX
  5
259
  8
0
 10
-37.988558623670542
 20
-25.562035477518521
 30
0.0
  0
VERTEX
  5
25A
  8
0
 10
-30.831397987061791
 20
-25.562035477518521
 30
0.0
  0
SEQEND
  5
25B
  8
0
  0
POLYLINE
  5
75
  8
0
 66
     1
 10
0.0
 20
0.0
 30
0.0
 70
     1
  0
VERTEX
  5
25C
  8
0
 10
-30.22564773378145
 20
-41.163814573362053
 30
0.0
  0
VERTEX
  5
25D
  8
0
 10
-34.484310350993837
 20
-41.163814573361599
 30
0.0
  0
VERTEX
  5
25E
  8
0
 10
-34.484310350993837
 20
-40.022607032962462
 30
0.0
  0
VERTEX
  5
25F
  8
0
 10
-30.22564773378145
 20
-40.022607032962462
 30
0.0
  0
SEQEND
  5
260
  8
0
  0
LINE
  5
76
  8
0
 10
-30.575566742927549
 20
-33.433244112027978
 30
0.0
 11
-36.299920045066763
 21
-33.433244112027978
 31
0.0
  0
POLYLINE
  5
77
  8
0
 66
     1
 10
0.0
 20
0.0
 30
0.0
 70
     1
  0
VERTEX
  5
261
  8
0
 10
-30.575566742927549
 20
-33.433244112027978
 30
0.0
  0
VERTEX
  5
262
  8
0
 10
-36.732054504363987
 20
-33.433244112027978
 30
0.0
  0
VERTEX
  5
263
  8
0
 10
-36.732054504363987
 20
-31.871773779078239
 30
0.0
  0
VERTEX
  5
264
  8
0
 10
-30.575566742927549
 20
-31.871773779077781
 30
0.0
  0
SEQEND
  5
265
  8
0
  0
INSERT
  5
78
  8
0
  6
CONTINUOUS
  2
*U3
 10
0.0
 20
0.0
 30
0.0
  0
INSERT
  5
79
  8
0
  6
CONTINUOUS
  2
*U4
 10
0.0
 20
0.0
 30
0.0
  0
POLYLINE
  5
7A
  8
0
 66
     1
 10
0.0
 20
0.0
 30
0.0
 70
     1
  0
VERTEX
  5
26E
  8
0
 10
30.83139798705815
 20
-23.204960743074931
 30
0.0
  0
VERTEX
  5
26F
  8
0
 10
37.988558623665078
 20
-23.204960743074711
 30
0.0
  0
VERTEX
  5
270
  8
0
 10
37.988558623665078
 20
-25.562035477517611
 30
0.0
  0
VERTEX
  5
271
  8
0
 10
30.831397987057251
 20
-25.562035477517838
 30
0.0
  0
SEQEND
  5
272
  8
0
  0
POLYLINE
  5
7B
  8
0
 66
     1
 10
0.0
 20
0.0
 30
0.0
 70
     1
  0
VERTEX
  5
273
  8
0
 10
30.225647733776899
 20
-41.163814573361378
 30
0.0
  0
VERTEX
  5
274
  8
0
 10
34.48431035098838
 20
-41.163814573361151
 30
0.0
  0
VERTEX
  5
275
  8
0
 10
34.48431035098838
 20
-40.02260703296156
 30
0.0
  0
VERTEX
  5
276
  8
0
 10
30.22564773377599
 20
-40.022607032961787
 30
0.0
  0
SEQEND
  5
277
  8
0
  0
LINE
  5
7C
  8
0
 10
30.575566742922099
 20
-33.433244112027531
 30
0.0
 11
36.299920045061299
 21
-33.433244112027531
 31
0.0
  0
POLYLINE
  5
7D
  8
0
 66
     1
 10
0.0
 20
0.0
 30
0.0
 70
     1
  0
VERTEX
  5
278
  8
0
 10
30.575566742922099
 20
-33.433244112027531
 30
0.0
  0
VERTEX
  5
279
  8
0
 10
36.73205450435853
 20
-33.433244112027531
 30
0.0
  0
VERTEX
  5
27A
  8
0
 10
36.732054504359439
 20
-31.87177377907733
 30
0.0
  0
VERTEX
  5
27B
  8
0
 10
30.575566742922099
 20
-31.87177377907733
 30
0.0
  0
SEQEND
  5
27C
  8
0
  0
LINE
  5
7E
  8
0
 10
52.804119648240892
 20
-227.5000000000002
 30
0.0
 11
-52.804119648244523
 21
-227.5000000000002
 31
0.0
  0
LINE
  5
7F
  8
0
 10
55.099999999998552
 20
-220.0667564458893
 30
0.0
 11
-55.100000000002183
 21
-220.0667564458893
 31
0.0
  0
LINE
  5
80
  8
0
 10
-55.100000000002183
 20
-220.0667564458893
 30
0.0
 11
-52.804119648244523
 21
-227.5000000000002
 31
0.0
  0
LINE
  5
81
  8
0
 10
55.099999999998552
 20
-220.0667564458893
 30
0.0
 11
52.804119648240892
 21
-227.5000000000002
 31
0.0
  0
LINE
  5
82
  8
0
 10
52.804119648240892
 20
-168.5000000000002
 30
0.0
 11
-52.804119648244523
 21
-168.5000000000002
 31
0.0
  0
LINE
  5
85
  8
0
 10
115.337020870842
 20
-49.162979129156383
 30
0.0
 11
-0.000000000001819
 21
-164.50000000000111
 31
0.0
  0
LINE
  5
86
  8
0
 10
104.43967158125081
 20
-113.3761797202135
 30
0.0
 11
55.099999999998552
 21
-162.71585130146579
 31
0.0
  0
LINE
  5
87
  8
0
 10
113.1370849898467
 20
-107.931457505078
 30
0.0
 11
56.858317984859241
 21
-51.652690500091467
 31
0.0
  0
LINE
  5
88
  8
0
 10
51.963491861037248
 20
-60.900000000000091
 30
0.0
 11
104.43967158125081
 21
-113.3761797202135
 31
0.0
  0
LINE
  5
89
  8
0
 10
104.43967158125081
 20
-113.3761797202135
 30
0.0
 11
113.1370849898467
 21
-107.931457505078
 31
0.0
  0
INSERT
  5
8A
  8
0
  6
CONTINUOUS
  2
*U5
 10
0.0
 20
0.0
 30
0.0
  0
POLYLINE
  5
8B
  8
0
 66
     1
 10
0.0
 20
0.0
 30
0.0
 70
     1
  0
VERTEX
  5
281
  8
0
 10
91.982992306418964
 20
-54.694607902019698
 30
0.0
  0
VERTEX
  5
282
  8
0
 10
86.922115486231633
 20
-49.633731081832821
 30
0.0
  0
VERTEX
  5
283
  8
0
 10
85.255411957743505
 20
-51.300434610320963
 30
0.0
  0
VERTEX
  5
284
  8
0
 10
90.316288777930822
 20
-56.361311430507612
 30
0.0
  0
SEQEND
  5
285
  8
0
  0
POLYLINE
  5
8C
  8
0
 66
     1
 10
0.0
 20
0.0
 30
0.0
 70
     1
  0
VERTEX
  5
286
  8
0
 10
80.672872904793607
 20
-66.86138752724446
 30
0.0
  0
VERTEX
  5
287
  8
0
 10
77.661543689378036
 20
-63.850058311827752
 30
0.0
  0
VERTEX
  5
288
  8
0
 10
78.468499279935713
 20
-63.043102721270088
 30
0.0
  0
VERTEX
  5
289
  8
0
 10
81.479828495352194
 20
-66.054431936686569
 30
0.0
  0
SEQEND
  5
28A
  8
0
  0
LINE
  5
8D
  8
0
 10
85.480191105221806
 20
-61.559209118352101
 30
0.0
 11
81.432462067370594
 21
-57.511480080501997
 31
0.0
  0
POLYLINE
  5
8E
  8
0
 66
     1
 10
0.0
 20
0.0
 30
0.0
 70
     1
  0
VERTEX
  5
28B
  8
0
 10
85.480191105221806
 20
-61.559209118352101
 30
0.0
  0
VERTEX
  5
28C
  8
0
 10
81.126896860816487
 20
-57.205914873947897
 30
0.0
  0
VERTEX
  5
28D
  8
0
 10
82.231023121867111
 20
-56.10178861289728
 30
0.0
  0
VERTEX
  5
28E
  8
0
 10
86.584317366272444
 20
-60.45508285730125
 30
0.0
  0
SEQEND
  5
28F
  8
0
  0
POLYLINE
  5
8F
  8
0
 66
     1
 10
0.0
 20
0.0
 30
0.0
 70
     1
  0
VERTEX
  5
290
  8
0
 10
109.8053920979782
 20
-72.517007693579217
 30
0.0
  0
VERTEX
  5
291
  8
0
 10
114.8662689181656
 20
-77.577884513765412
 30
0.0
  0
VERTEX
  5
292
  8
0
 10
113.1995653896774
 20
-79.244588042253554
 30
0.0
  0
VERTEX
  5
293
  8
0
 10
108.1386885694901
 20
-74.183711222067132
 30
0.0
  0
SEQEND
  5
294
  8
0
  0
POLYLINE
  5
90
  8
0
 66
     1
 10
0.0
 20
0.0
 30
0.0
 70
     1
  0
VERTEX
  5
295
  8
0
 10
97.638612472753266
 20
-83.827127095203195
 30
0.0
  0
VERTEX
  5
296
  8
0
 10
100.6499416881706
 20
-86.838456310619677
 30
0.0
  0
VERTEX
  5
297
  8
0
 10
101.4568972787274
 20
-86.031500720062013
 30
0.0
  0
VERTEX
  5
298
  8
0
 10
98.44556806331093
 20
-83.020171504645305
 30
0.0
  0
SEQEND
  5
299
  8
0
  0
LINE
  5
91
  8
0
 10
102.9407908816447
 20
-79.019808894776361
 30
0.0
 11
106.9885199194959
 21
-83.067537932626706
 31
0.0
  0
POLYLINE
  5
92
  8
0
 66
     1
 10
0.0
 20
0.0
 30
0.0
 70
     1
  0
VERTEX
  5
29A
  8
0
 10
102.9407908816447
 20
-79.019808894776361
 30
0.0
  0
VERTEX
  5
29B
  8
0
 10
107.29408512605001
 20
-83.373103139180785
 30
0.0
  0
VERTEX
  5
29C
  8
0
 10
108.3982113871007
 20
-82.268976878130161
 30
0.0
  0
VERTEX
  5
29D
  8
0
 10
104.04491714269621
 20
-77.91568263372551
 30
0.0
  0
SEQEND
  5
29E
  8
0
  0
LINE
  5
93
  8
0
 10
57.359675034455897
 20
-50.705526353645382
 30
0.0
 11
51.963491861037248
 21
-60.900000000000091
 31
0.0
  0
ARC
  5
94
  8
0
 10
63.114399290010617
 20
-132.2437699179693
 30
0.0
 40
31.50838523031906
 50
181.170497801755
 51
255.2644728808871
  0
ARC
  5
95
  8
0
 10
181.7217543061397
 20
-136.45308694466141
 30
0.0
 40
150.15150888232759
 50
149.78945485637001
 51
178.63925858701489
  0
LINE
  5
96
  8
0
 10
55.099999999997628
 20
-17.9647538431127
 30
0.0
 11
-55.100000000002183
 21
-17.964753843113609
 31
0.0
  0
LINE
  5
97
  8
0
 10
-65.612000000000975
 20
-17.9647538431127
 30
0.0
 11
65.611999999996442
 21
-17.964753843113609
 31
0.0
  0
LINE
  5
98
  8
0
 10
-58.412000000001171
 20
0.0
 30
0.0
 11
-58.412000000001171
 21
-2.159999999999854
 31
0.0
  0
LINE
  5
99
  8
0
 10
-58.411999999998443
 20
-14.595386816942661
 30
0.0
 11
-58.411999999999352
 21
-15.08475384311259
 31
0.0
  0
LINE
  5
9A
  8
0
 10
-58.412000000002081
 20
-20.881728076453332
 30
0.0
 11
-58.411999999999352
 21
-46.499999999999083
 31
0.0
  0
LINE
  5
9B
  8
0
 10
58.412000000001171
 20
0.0
 30
0.0
 11
58.412000000001171
 21
-2.159999999999854
 31
0.0
  0
LINE
  5
9C
  8
0
 10
58.411999999998443
 20
-14.595386816942661
 30
0.0
 11
58.412000000000262
 21
-15.08475384311259
 31
0.0
  0
LINE
  5
9D
  8
0
 10
58.412000000000262
 20
-20.881728076458788
 30
0.0
 11
58.412000000000262
 21
-46.5
 31
0.0
  0
LINE
  5
9E
  8
0
 10
-65.61200000000008
 20
-15.08475384311259
 30
0.0
 11
65.611999999998261
 21
-15.08475384311259
 31
0.0
  0
LINE
  5
9F
  8
0
 10
-65.612000000000975
 20
-15.08475384311259
 30
0.0
 11
-65.612000000001899
 21
-17.9647538431127
 31
0.0
  0
LINE
  5
A0
  8
0
 10
65.611999999998261
 20
-15.08475384311259
 30
0.0
 11
65.611999999997352
 21
-17.9647538431127
 31
0.0
  0
LINE
  5
A1
  8
0
 10
-63.993480370559148
 20
-2.159999999999854
 30
0.0
 11
-0.0000000000027285
 21
-2.159999999999854
 31
0.0
  0
LINE
  5
A2
  8
0
 10
-0.0000000000027285
 20
-14.595386816942661
 30
0.0
 11
-66.475022670399085
 21
-14.595386816942661
 31
0.0
  0
LINE
  5
A3
  8
0
 10
-66.475022670399085
 20
-14.595386816942661
 30
0.0
 11
-63.993480370559148
 21
-2.159999999999854
 31
0.0
  0
LINE
  5
A4
  8
0
 10
63.993480370559148
 20
-2.159999999999854
 30
0.0
 11
-0.0000000000027285
 21
-2.159999999999854
 31
0.0
  0
LINE
  5
A5
  8
0
 10
-0.0000000000027285
 20
-14.595386816942661
 30
0.0
 11
66.475022670399994
 21
-14.595386816942661
 31
0.0
  0
LINE
  5
A6
  8
0
 10
66.475022670399994
 20
-14.595386816942661
 30
0.0
 11
63.993480370559148
 21
-2.159999999999854
 31
0.0
  0
LINE
  5
A7
  8
0
 10
-58.411999999998443
 20
0.0
 30
0.0
 11
-58.412000000001171
 21
-2.159999999999854
 31
0.0
  0
LINE
  5
A8
  8
0
 10
-58.411999999999352
 20
-20.881728076453332
 30
0.0
 11
-58.411999999999352
 21
-46.499999999999083
 31
0.0
  0
LINE
  5
A9
  8
0
 10
-58.411999999999352
 20
0.0
 30
0.0
 11
58.412000000000262
 21
0.0
 31
0.0
  0
ARC
  5
AA
  8
0
 10
61.328974233346337
 20
-20.881728076458788
 30
0.0
 40
2.91697423334579
 50
90.0
 51
180.0
  0
ARC
  5
AB
  8
0
 10
-61.328974233348163
 20
-20.881728076453332
 30
0.0
 40
2.91697423334579
 50
0.0
 51
90.0
  0
LINE
  5
AC
  8
0
 10
-1.4399999999995989
 20
-2.159999999999854
 30
0.0
 11
-1.4400000000014179
 21
-14.595386816942661
 31
0.0
  0
LINE
  5
AE
  8
0
 10
1.4399999999977799
 20
-2.159999999999854
 30
0.0
 11
1.4399999999977799
 21
-14.595386816942661
 31
0.0
  0
LINE
  5
AF
  8
0
 10
-16.648208166348919
 20
-2.159999999999854
 30
0.0
 11
-17.280000000001561
 21
-14.595386816942661
 31
0.0
  0
LINE
  5
B0
  8
0
 10
16.648208166343458
 20
-2.159999999999854
 30
0.0
 11
17.2799999999961
 21
-14.595386816942661
 31
0.0
  0
LINE
  5
B1
  8
0
 10
-47.056612677517471
 20
-2.159999999999854
 30
0.0
 11
-48.331999999998523
 21
-14.595386816942661
 31
0.0
  0
LINE
  5
B2
  8
0
 10
-49.39651924311238
 20
-2.159999999999854
 30
0.0
 11
-50.671906565593417
 21
-14.595386816942661
 31
0.0
  0
LINE
  5
B3
  8
0
 10
47.056612677517471
 20
-2.159999999999854
 30
0.0
 11
48.331999999998523
 21
-14.595386816942661
 31
0.0
  0
LINE
  5
B4
  8
0
 10
49.39651924311238
 20
-2.159999999999854
 30
0.0
 11
50.671906565593417
 21
-14.595386816942661
 31
0.0
  0
LINE
  5
B5
  8
0
 10
130.55429911007471
 20
-87.395296074413864
 30
0.0
 11
77.238447808608726
 21
-34.079444772947909
 31
0.0
  0
LINE
  5
B6
  8
0
 10
72.076568305948058
 20
-28.917565270286332
 30
0.0
 11
135.71617861273529
 21
-92.557175577074545
 31
0.0
  0
LINE
  5
B7
  8
0
 10
87.11962156489335
 20
-20.945579823207709
 30
0.0
 11
86.05896139311335
 21
-22.0062399949868
 31
0.0
  0
LINE
  5
B8
  8
0
 10
77.266617678903444
 20
-30.79858370919942
 30
0.0
 11
77.026315774254726
 21
-31.038885613847238
 31
0.0
  0
LINE
  5
B9
  8
0
 10
143.68816405981761
 20
-77.514122318131967
 30
0.0
 11
142.62750388803849
 21
-78.574782489912877
 31
0.0
  0
LINE
  5
BA
  8
0
 10
133.8351601738259
 20
-87.36712620412186
 30
0.0
 11
133.59485826917901
 21
-87.607428108770605
 31
0.0
  0
LINE
  5
BB
  8
0
 10
130.74827508114871
 20
-90.4540112968009
 30
0.0
 11
113.49470450315221
 21
-107.7075818747973
 31
0.0
  0
LINE
  5
BC
  8
0
 10
73.490781868321392
 20
-27.50335170791482
 30
0.0
 11
137.1303921751105
 21
-91.142962014703016
 31
0.0
  0
LINE
  5
BD
  8
0
 10
73.490781868321392
 20
-27.503351707913001
 30
0.0
 11
72.076568305947134
 21
-28.917565270286332
 31
0.0
  0
LINE
  5
BE
  8
0
 10
137.1303921751105
 20
-91.142962014703016
 30
0.0
 11
135.71617861273711
 21
-92.557175577075441
 31
0.0
  0
LINE
  5
BF
  8
0
 10
83.318195685417777
 20
-19.265474287292129
 30
0.0
 11
114.34323264057549
 21
-50.290511242449838
 31
0.0
  0
LINE
  5
C0
  8
0
 10
105.55088892636471
 20
-59.082854956660633
 30
0.0
 11
73.307299618416437
 21
-26.839265648712399
 31
0.0
  0
LINE
  5
C1
  8
0
 10
73.307299618416437
 20
-26.839265648712399
 30
0.0
 11
83.318195685417777
 21
-19.265474287292129
 31
0.0
  0
LINE
  5
C2
  8
0
 10
145.36826959573321
 20
-81.315548197607541
 30
0.0
 11
114.34323264057549
 21
-50.290511242449838
 31
0.0
  0
LINE
  5
C3
  8
0
 10
105.55088892636471
 20
-59.082854956660633
 30
0.0
 11
137.7944782343138
 21
-91.326444264608881
 31
0.0
  0
LINE
  5
C4
  8
0
 10
137.7944782343138
 20
-91.326444264608881
 30
0.0
 11
145.36826959573321
 21
-81.315548197607541
 31
0.0
  0
LINE
  5
C5
  8
0
 10
87.11962156489335
 20
-20.945579823208622
 30
0.0
 11
86.05896139311335
 21
-22.0062399949868
 31
0.0
  0
LINE
  5
C6
  8
0
 10
74.179732586227146
 20
-33.885468801873913
 30
0.0
 11
57.359675034455897
 21
-50.705526353645837
 31
0.0
  0
LINE
  5
C7
  8
0
 10
87.11962156489335
 20
-20.945579823207709
 30
0.0
 11
143.68816405981761
 21
-77.514122318131967
 31
0.0
  0
ARC
  5
C8
  8
0
 10
132.18064470680559
 20
-91.886380922457874
 30
0.0
 40
2.025676550934576
 50
44.999999999990777
 51
135.00000000000921
  0
ARC
  5
C9
  8
0
 10
72.747362960569262
 20
-32.453099176216028
 30
0.0
 40
2.025676550934576
 50
315.00000000000921
 51
44.999999999990777
  0
LINE
  5
CA
  8
0
 10
113.6361258593906
 20
-49.58340446126499
 30
0.0
 11
104.84378214517891
 21
-58.375748175474882
 31
0.0
  0
LINE
  5
CB
  8
0
 10
115.0503394217621
 20
-50.997618023636512
 30
0.0
 11
106.2579957075513
 21
-59.789961737847307
 31
0.0
  0
LINE
  5
CC
  8
0
 10
106.1681903565277
 20
-42.115468958402062
 30
0.0
 11
97.065607552126494
 21
-50.597573582422449
 31
0.0
  0
LINE
  5
CD
  8
0
 10
122.5182749246232
 20
-58.465553526497622
 30
0.0
 11
114.03617030060281
 21
-67.568136330898824
 31
0.0
  0
LINE
  5
CE
  8
0
 10
91.63498318389702
 20
-27.58226178577047
 30
0.0
 11
82.216365147210126
 21
-35.748331177505179
 31
0.0
  0
LINE
  5
CF
  8
0
 10
90.485980545094208
 20
-26.43325914696857
 30
0.0
 11
81.067362508407314
 21
-34.599328538703283
 31
0.0
  0
LINE
  5
D0
  8
0
 10
137.05148209725479
 20
-72.998760699129207
 30
0.0
 11
128.88541270552011
 21
-82.417378735816115
 31
0.0
  0
LINE
  5
D1
  8
0
 10
138.20048473605669
 20
-74.14776333793111
 30
0.0
 11
130.03441534432289
 21
-83.566381374618004
 31
0.0
  0
VIEWPORT
  5
1C2
 67
     1
  8
0
  6
CONTINUOUS
 10
128.5
 20
97.5
 30
0.0
 40
348.79216438356173
 41
222.18000000000001
 68
     1
 69
     1
1001
ACAD
1000
MVIEW
1002
{
1070
    16
1010
0.0
1020
0.0
1030
0.0
1010
0.0
1020
0.0
1030
1.0
1040
0.0
1040
222.18000000000001
1040
128.5
1040
97.5
1040
50.0
1040
0.0
1040
0.0
1070
     0
1070
  1000
1070
     1
1070
     1
1070
     0
1070
     0
1070
     0
1070
     0
1040
0.0
1040
0.0
1040
0.0
1040
10.0
1040
10.0
1040
10.0
1040
10.0
1070
     0
1002
{
1002
}
1002
}
  0
VIEWPORT
  5
1C6
 67
     1
  8
0
  6
CONTINUOUS
 10
128.5
 20
97.5
 30
0.0
 40
205.59999999999999
 41
156.0
 68
     2
 69
     2
1001
ACAD
1000
MVIEW
1002
{
1070
    16
1010
30714.317967474461
1020
7339.7553224022467
1030
0.0
1010
-38962.971254248441
1020
-38962.97125424847
1030
38962.97125424847
1040
0.0000000000000005
1040
237.81203508439319
1040
-16419.985382294992
1040
-15565.84459222578
1040
50.0
1040
0.0
1040
0.0
1070
     0
1070
  1000
1070
     1
1070
     3
1070
     0
1070
     0
1070
     0
1070
     0
1040
0.0
1040
0.0
1040
0.0
1040
10.0
1040
10.0
1040
10.0
1040
10.0
1070
     0
1002
{
1002
}
1002
}
  0
ENDSEC
  0
EOF
