  0
SECTION
  2
HEADER
  9
$ACADVER
  1
AC1009
  9
$INSBASE
 10
0.0
 20
0.0
 30
0.0
  9
$EXTMIN
 10
-66.475022670399994
 20
-178.5
 30
0.0
  9
$EXTMAX
 10
101.89050807178231
 20
0.0
 30
0.0
  9
$LIMMIN
 10
0.0
 20
0.0
  9
$LIMMAX
 10
420.0
 20
297.0
  9
$ORTHOMODE
 70
     0
  9
$REGENMODE
 70
     1
  9
$FILLMODE
 70
     1
  9
$QTEXTMODE
 70
     0
  9
$MIRRTEXT
 70
     0
  9
$DRAGMODE
 70
     2
  9
$LTSCALE
 40
1.0
  9
$OSMODE
 70
   127
  9
$ATTMODE
 70
     1
  9
$TEXTSIZE
 40
2.5
  9
$TRACEWID
 40
1.0
  9
$TEXTSTYLE
  7
STANDARD
  9
$CLAYER
  8
0
  9
$CELTYPE
  6
CONTINUOUS
  9
$CECOLOR
 62
   256
  9
$DIMSCALE
 40
1.0
  9
$DIMASZ
 40
2.5
  9
$DIMEXO
 40
0.625
  9
$DIMDLI
 40
3.75
  9
$DIMRND
 40
0.0
  9
$DIMDLE
 40
0.0
  9
$DIMEXE
 40
1.25
  9
$DIMTP
 40
0.0
  9
$DIMTM
 40
0.0
  9
$DIMTXT
 40
2.5
  9
$DIMCEN
 40
2.5
  9
$DIMTSZ
 40
0.0
  9
$DIMTOL
 70
     0
  9
$DIMLIM
 70
     0
  9
$DIMTIH
 70
     0
  9
$DIMTOH
 70
     0
  9
$DIMSE1
 70
     0
  9
$DIMSE2
 70
     0
  9
$DIMTAD
 70
     1
  9
$DIMZIN
 70
     8
  9
$DIMBLK
  1

  9
$DIMASO
 70
     1
  9
$DIMSHO
 70
     1
  9
$DIMPOST
  1

  9
$DIMAPOST
  1

  9
$DIMALT
 70
     0
  9
$DIMALTD
 70
     3
  9
$DIMALTF
 40
0.03937007874016
  9
$DIMLFAC
 40
1.0
  9
$DIMTOFL
 70
     1
  9
$DIMTVP
 40
0.0
  9
$DIMTIX
 70
     0
  9
$DIMSOXD
 70
     0
  9
$DIMSAH
 70
     0
  9
$DIMBLK1
  1

  9
$DIMBLK2
  1

  9
$DIMSTYLE
  2
STANDARD
  9
$DIMCLRD
 70
     0
  9
$DIMCLRE
 70
     0
  9
$DIMCLRT
 70
     0
  9
$DIMTFAC
 40
1.0
  9
$DIMGAP
 40
0.625
  9
$LUNITS
 70
     2
  9
$LUPREC
 70
     4
  9
$SKETCHINC
 40
1.0
  9
$FILLETRAD
 40
3.0
  9
$AUNITS
 70
     0
  9
$AUPREC
 70
     0
  9
$MENU
  1
.
  9
$ELEVATION
 40
0.0
  9
$PELEVATION
 40
0.0
  9
$THICKNESS
 40
0.0
  9
$LIMCHECK
 70
     0
  9
$BLIPMODE
 70
     0
  9
$CHAMFERA
 40
0.0
  9
$CHAMFERB
 40
0.0
  9
$SKPOLY
 70
     0
  9
$TDCREATE
 40
2455559.2317578131
  9
$TDUPDATE
 40
2457377.727046933
  9
$TDINDWG
 40
2.9209240625000001
  9
$TDUSRTIMER
 40
2.9209200809999998
  9
$USRTIMER
 70
     1
  9
$ANGBASE
 50
0.0
  9
$ANGDIR
 70
     0
  9
$PDMODE
 70
     0
  9
$PDSIZE
 40
0.0
  9
$PLINEWID
 40
0.0
  9
$COORDS
 70
     2
  9
$SPLFRAME
 70
     0
  9
$SPLINETYPE
 70
     6
  9
$SPLINESEGS
 70
     8
  9
$ATTDIA
 70
     1
  9
$ATTREQ
 70
     1
  9
$HANDLING
 70
     1
  9
$HANDSEED
  5
2D7
  9
$SURFTAB1
 70
     6
  9
$SURFTAB2
 70
     6
  9
$SURFTYPE
 70
     6
  9
$SURFU
 70
     6
  9
$SURFV
 70
     6
  9
$UCSNAME
  2

  9
$UCSORG
 10
0.0
 20
0.0
 30
0.0
  9
$UCSXDIR
 10
1.0
 20
0.0
 30
0.0
  9
$UCSYDIR
 10
0.0
 20
1.0
 30
0.0
  9
$PUCSNAME
  2

  9
$PUCSORG
 10
0.0
 20
0.0
 30
0.0
  9
$PUCSXDIR
 10
1.0
 20
0.0
 30
0.0
  9
$PUCSYDIR
 10
0.0
 20
1.0
 30
0.0
  9
$USERI1
 70
     0
  9
$USERI2
 70
     0
  9
$USERI3
 70
     0
  9
$USERI4
 70
     0
  9
$USERI5
 70
     0
  9
$USERR1
 40
0.0
  9
$USERR2
 40
0.0
  9
$USERR3
 40
0.0
  9
$USERR4
 40
0.0
  9
$USERR5
 40
0.0
  9
$WORLDVIEW
 70
     1
  9
$SHADEDGE
 70
     3
  9
$SHADEDIF
 70
    70
  9
$TILEMODE
 70
     1
  9
$MAXACTVP
 70
    64
  9
$PLIMCHECK
 70
     0
  9
$PEXTMIN
 10
25.699999999999989
 20
19.5
 30
0.0
  9
$PEXTMAX
 10
231.30000000000001
 20
175.5
 30
0.0
  9
$PLIMMIN
 10
-20.0
 20
-7.5
  9
$PLIMMAX
 10
277.0
 20
202.5
  9
$UNITMODE
 70
     0
  9
$VISRETAIN
 70
     1
  9
$PLINEGEN
 70
     0
  9
$PSLTSCALE
 70
     1
  0
ENDSEC
  0
SECTION
  2
TABLES
  0
TABLE
  2
VPORT
 70
     1
  0
VPORT
  2
*ACTIVE
 70
     0
 10
0.0
 20
0.0
 11
1.0
 21
1.0
 12
16458.127776663969
 22
5824.9361560382022
 13
0.0
 23
0.0
 14
10.0
 24
10.0
 15
10.0
 25
10.0
 16
-38962.971254248441
 26
-38962.97125424847
 36
38962.97125424847
 17
30714.317967474461
 27
7339.7553224022467
 37
0.0
 40
45085.451174768772
 41
1.56986301369863
 42
50.0
 43
0.0
 44
0.0
 50
0.0
 51
0.0000000000000313
 71
     0
 72
  1000
 73
     1
 74
     3
 75
     0
 76
     0
 77
     0
 78
     0
  0
ENDTAB
  0
TABLE
  2
LTYPE
 70
     4
  0
LTYPE
  2
CONTINUOUS
 70
     0
  3
Solid line
 72
    65
 73
     0
 40
0.0
  0
ENDTAB
  0
TABLE
  2
LAYER
 70
    10
  0
LAYER
  2
0
 70
     0
 62
     7
  6
CONTINUOUS
  0
ENDTAB
  0
TABLE
  2
STYLE
 70
     4
  0
STYLE
  2
STANDARD
 70
     0
 40
0.0
 41
1.0
 50
0.0
 71
     0
 42
2.5
  3
txt
  4

  0
STYLE
  2
INSCRIPTIONS
 70
     0
 40
0.0
 41
0.9
 50
0.0
 71
     0
 42
2.5
  3
txt
  4

  0
ENDTAB
  0
TABLE
  2
VIEW
 70
     1
  0
ENDTAB
  0
TABLE
  2
UCS
 70
     0
  0
ENDTAB
  0
TABLE
  2
APPID
 70
     7
  0
APPID
  2
ACAD
 70
     0
  0
APPID
  2
ACAD_PSEXT
 70
     0
  0
APPID
  2
ACAECLAYERSTANDARD
 70
     0
  0
APPID
  2
ACAD_NAV_VCDISPLAY
 70
     0
  0
APPID
  2
REVIT
 70
     0
  0
APPID
  2
ACAD_EXEMPT_FROM_CAD_STANDARDS
 70
     0
  0
APPID
  2
ACAD_MLEADERVER
 70
     0
  0
ENDTAB
  0
TABLE
  2
DIMSTYLE
 70
     1
  0
DIMSTYLE
  2
STANDARD
 70
     0
  3

  4

  5

  6

  7

 40
1.0
 41
0.18
 42
0.0625
 43
0.38
 44
0.18
 45
0.0
 46
0.0
 47
0.0
 48
0.0
140
0.18
141
0.09
142
0.0
143
25.399999999999999
144
1.0
145
0.0
146
1.0
147
0.09
 71
     0
 72
     0
 73
     1
 74
     1
 75
     0
 76
     0
 77
     0
 78
     0
170
     0
171
     2
172
     0
173
     0
174
     0
175
     0
176
     0
177
     0
178
     0
  0
ENDTAB
  0
ENDSEC
  0
SECTION
  2
BLOCKS
  0
BLOCK
  8
0
  2
$MODEL_SPACE
 70
     0
 10
0.0
 20
0.0
 30
0.0
  3
$MODEL_SPACE
  1

  0
ENDBLK
  5
D
  8
0
  0
BLOCK
 67
     1
  8
0
  2
$PAPER_SPACE
 70
     0
 10
0.0
 20
0.0
 30
0.0
  3
$PAPER_SPACE
  1

  0
ENDBLK
  5
1BD
 67
     1
  8
0
  0
BLOCK
  8
0
  2
*U2
 70
     1
 10
0.0
 20
0.0
 30
0.0
  3
*U2
  1

  0
TEXT
  5
253
  8
0
  6
CONTINUOUS
 10
-28.274320855833139
 20
-41.6679831018645
 30
0.0
 40
20.020769999999992
  1
110
 41
0.8
  7
INSCRIPTIONS
  0
ENDBLK
  5
255
  8
0
  0
BLOCK
  8
0
  2
*U3
 70
     1
 10
0.0
 20
0.0
 30
0.0
  3
*U3
  1

  0
TEXT
  5
266
  8
0
  6
CONTINUOUS
 10
8.2883693737421709
 20
-30.083377494359048
 30
0.0
 40
8.0999999999999996
  1
87.5°
 41
0.7
  7
INSCRIPTIONS
  0
ENDBLK
  5
268
  8
0
  0
BLOCK
  8
0
  2
*U4
 70
     1
 10
0.0
 20
0.0
 30
0.0
  3
*U4
  1

  0
TEXT
  5
26A
  8
0
  6
CONTINUOUS
 10
6.991397918896836
 20
-41.061455400000881
 30
0.0
 40
8.0999999999999996
  1
PP-MD
 41
0.6
  7
INSCRIPTIONS
  0
ENDBLK
  5
26C
  8
0
  0
BLOCK
  8
0
  2
*U5
 70
     1
 10
0.0
 20
0.0
 30
0.0
  3
*U5
  1

  0
TEXT
  5
27D
  8
0
  6
CONTINUOUS
 10
66.365430212293134
 20
-76.967647270488953
 30
0.0
 40
14.9688
  1
50
 50
272.5
 41
0.8
  7
INSCRIPTIONS
  0
ENDBLK
  5
27F
  8
0
  0
ENDSEC
  0
SECTION
  2
ENTITIES
  0
LINE
  5
4B
  8
0
 10
0.0
 20
0.0
 30
0.0
 11
-0.000000000003638
 21
-89.091494665280607
 31
0.0
  0
LINE
  5
4F
  8
0
 10
-0.000000000003638
 20
-89.091494665280607
 30
0.0
 11
-0.0000000000027285
 21
-178.5
 31
0.0
  0
LINE
  5
50
  8
0
 10
58.411999999999352
 20
-46.5
 30
0.0
 11
-58.4120000000039
 21
-46.500000000000448
 31
0.0
  0
LINE
  5
52
  8
0
 10
-55.100000000003092
 20
-60.900000000000091
 30
0.0
 11
-27.905619517544441
 21
-60.900000000000091
 31
0.0
  0
LINE
  5
53
  8
0
 10
27.905619517535339
 20
-60.900000000000091
 30
0.0
 11
54.873977346218453
 21
-60.900000000000091
 31
0.0
  0
ARC
  5
54
  8
0
 10
-0.0000000000045475
 20
-39.238466151532982
 30
0.0
 40
38.954503636548402
 50
239.34608426254911
 51
300.65391573743761
  0
ARC
  5
55
  8
0
 10
-0.0000000000045475
 20
-39.238466151532982
 30
0.0
 40
41.834503636548398
 50
239.34608426254911
 51
300.65391573743761
  0
ARC
  5
56
  8
0
 10
14.72169901884536
 20
-64.078122716230155
 30
0.0
 40
10.08
 50
300.65391573743761
 51
356.4236656249962
  0
ARC
  5
57
  8
0
 10
14.72169901884536
 20
-64.078122716230155
 30
0.0
 40
12.960000000000001
 50
300.65391573743761
 51
356.4236656249962
  0
ARC
  5
58
  8
0
 10
-14.72169901885627
 20
-64.078122716228791
 30
0.0
 40
10.08
 50
183.5763343750038
 51
239.34608426254911
  0
ARC
  5
59
  8
0
 10
-14.72169901885627
 20
-64.078122716228791
 30
0.0
 40
12.960000000000001
 50
183.5763343750038
 51
239.34608426254911
  0
LINE
  5
5A
  8
0
 10
-24.782069009963379
 20
-64.706895840673042
 30
0.0
 11
-25.82801849066982
 21
-47.971704149396821
 31
0.0
  0
LINE
  5
5B
  8
0
 10
-27.656460435995541
 20
-64.886545304799711
 30
0.0
 11
-28.71363800820745
 21
-47.971704149396821
 31
0.0
  0
LINE
  5
5C
  8
0
 10
24.782069009952458
 20
-64.706895840674861
 30
0.0
 11
25.828018490658
 21
-47.971704149396373
 31
0.0
  0
LINE
  5
5D
  8
0
 10
27.656460435983721
 20
-64.88654530480153
 30
0.0
 11
28.713638008198359
 21
-47.971704149396373
 31
0.0
  0
LINE
  5
5E
  8
0
 10
-28.713638008206551
 20
-47.971704149396821
 30
0.0
 11
-25.82801849066982
 21
-47.971704149396821
 31
0.0
  0
LINE
  5
5F
  8
0
 10
25.828018490658
 20
-47.971704149396821
 30
0.0
 11
28.713638008198359
 21
-47.971704149396821
 31
0.0
  0
LINE
  5
60
  8
0
 10
24.984843604966951
 20
-61.462502320439391
 30
0.0
 11
13.044175147004349
 21
-61.462502320439391
 31
0.0
  0
LINE
  5
61
  8
0
 10
24.984843604966951
 20
-60.022502320439798
 30
0.0
 11
13.044175147004349
 21
-60.022502320439798
 31
0.0
  0
LINE
  5
62
  8
0
 10
11.686043102430631
 20
-62.42388206438909
 30
0.0
 11
6.3101568683632641
 21
-77.678487923983084
 31
0.0
  0
LINE
  5
63
  8
0
 10
10.327911057855999
 20
-61.945261808338273
 30
0.0
 11
4.7024368161255552
 21
-77.908098184436767
 31
0.0
  0
ARC
  5
64
  8
0
 10
13.044175147004349
 20
-62.902502320439908
 30
0.0
 40
2.879999999999999
 50
90.0
 51
160.58699732406811
  0
ARC
  5
65
  8
0
 10
13.044175147004349
 20
-62.902502320439908
 30
0.0
 40
1.4399999999998361
 50
90.0
 51
160.58699732406811
  0
LINE
  5
66
  8
0
 10
17.52383607688898
 20
-64.184837126331786
 30
0.0
 11
15.53898039030719
 21
-69.817060329844935
 31
0.0
  0
LINE
  5
67
  8
0
 10
19.042588166783389
 20
-64.720061603985869
 30
0.0
 11
17.057732480204319
 21
-70.352284807499473
 31
0.0
  0
LINE
  5
68
  8
0
 10
17.52383607688898
 20
-64.184837126331786
 30
0.0
 11
19.042588166783389
 21
-64.720061603985869
 31
0.0
  0
LINE
  5
69
  8
0
 10
15.538980390309
 20
-69.81706032984539
 30
0.0
 11
17.057732480204319
 21
-70.352284807499473
 31
0.0
  0
LINE
  5
6A
  8
0
 10
15.363361856458139
 20
-70.315395190159961
 30
0.0
 11
16.88211394635255
 21
-70.850619667814044
 31
0.0
  0
LINE
  5
6B
  8
0
 10
15.36336185645996
 20
-70.315395190159961
 30
0.0
 11
15.73222317512227
 21
-71.691131368455444
 31
0.0
  0
LINE
  5
6C
  8
0
 10
15.73222317512227
 20
-71.691131368455444
 30
0.0
 11
16.88211394635255
 21
-70.850619667814044
 31
0.0
  0
LINE
  5
6D
  8
0
 10
55.125638759786852
 20
-60.788527131348019
 30
0.0
 11
58.411999999999352
 21
-46.5
 31
0.0
  0
LINE
  5
6E
  8
0
 10
-55.100000000003092
 20
-60.900000000000091
 30
0.0
 11
-58.4120000000039
 21
-46.500000000000448
 31
0.0
  0
LINE
  5
6F
  8
0
 10
-55.100000000003092
 20
-60.900000000000091
 30
0.0
 11
-55.100000000003092
 21
-171.06675644588901
 31
0.0
  0
LINE
  5
70
  8
0
 10
55.099999999996719
 20
-111.31828971185629
 30
0.0
 11
55.099999999996719
 21
-171.06675644588901
 31
0.0
  0
INSERT
  5
71
  8
0
  6
CONTINUOUS
  2
*U2
 10
0.0
 20
0.0
 30
0.0
  0
POLYLINE
  5
74
  8
0
 66
     1
 10
0.0
 20
0.0
 30
0.0
 70
     1
  0
VERTEX
  5
256
  8
0
 10
-30.83139798706361
 20
-23.147178048348909
 30
0.0
  0
VERTEX
  5
257
  8
0
 10
-37.988558623670542
 20
-23.147178048348909
 30
0.0
  0
VERTEX
  5
258
  8
0
 10
-37.988558623670542
 20
-25.504252782791809
 30
0.0
  0
VERTEX
  5
259
  8
0
 10
-30.83139798706361
 20
-25.504252782791809
 30
0.0
  0
SEQEND
  5
25A
  8
0
  0
POLYLINE
  5
75
  8
0
 66
     1
 10
0.0
 20
0.0
 30
0.0
 70
     1
  0
VERTEX
  5
25B
  8
0
 10
-30.225647733783259
 20
-41.106031878635342
 30
0.0
  0
VERTEX
  5
25C
  8
0
 10
-34.484310350994747
 20
-41.106031878635342
 30
0.0
  0
VERTEX
  5
25D
  8
0
 10
-34.484310350994747
 20
-39.964824338235758
 30
0.0
  0
VERTEX
  5
25E
  8
0
 10
-30.225647733782349
 20
-39.964824338235758
 30
0.0
  0
SEQEND
  5
25F
  8
0
  0
LINE
  5
76
  8
0
 10
-30.575566742927549
 20
-33.375461417301722
 30
0.0
 11
-36.299920045066763
 21
-33.375461417301722
 31
0.0
  0
POLYLINE
  5
77
  8
0
 66
     1
 10
0.0
 20
0.0
 30
0.0
 70
     1
  0
VERTEX
  5
260
  8
0
 10
-30.575566742927549
 20
-33.375461417301722
 30
0.0
  0
VERTEX
  5
261
  8
0
 10
-36.732054504364903
 20
-33.375461417301722
 30
0.0
  0
VERTEX
  5
262
  8
0
 10
-36.732054504365813
 20
-31.813991084351532
 30
0.0
  0
VERTEX
  5
263
  8
0
 10
-30.575566742927549
 20
-31.813991084351532
 30
0.0
  0
SEQEND
  5
264
  8
0
  0
INSERT
  5
78
  8
0
  6
CONTINUOUS
  2
*U3
 10
0.0
 20
0.0
 30
0.0
  0
INSERT
  5
79
  8
0
  6
CONTINUOUS
  2
*U4
 10
0.0
 20
0.0
 30
0.0
  0
POLYLINE
  5
7A
  8
0
 66
     1
 10
0.0
 20
0.0
 30
0.0
 70
     1
  0
VERTEX
  5
26D
  8
0
 10
30.831397987056341
 20
-23.147178048348451
 30
0.0
  0
VERTEX
  5
26E
  8
0
 10
37.988558623663273
 20
-23.147178048348
 30
0.0
  0
VERTEX
  5
26F
  8
0
 10
37.988558623663273
 20
-25.504252782791351
 30
0.0
  0
VERTEX
  5
270
  8
0
 10
30.831397987056341
 20
-25.504252782791351
 30
0.0
  0
SEQEND
  5
271
  8
0
  0
POLYLINE
  5
7B
  8
0
 66
     1
 10
0.0
 20
0.0
 30
0.0
 70
     1
  0
VERTEX
  5
272
  8
0
 10
30.22564773377599
 20
-41.106031878634887
 30
0.0
  0
VERTEX
  5
273
  8
0
 10
34.48431035098838
 20
-41.10603187863444
 30
0.0
  0
VERTEX
  5
274
  8
0
 10
34.48431035098838
 20
-39.964824338235303
 30
0.0
  0
VERTEX
  5
275
  8
0
 10
30.22564773377599
 20
-39.964824338235303
 30
0.0
  0
SEQEND
  5
276
  8
0
  0
LINE
  5
7C
  8
0
 10
30.575566742921179
 20
-33.375461417300819
 30
0.0
 11
36.299920045060389
 21
-33.375461417300819
 31
0.0
  0
POLYLINE
  5
7D
  8
0
 66
     1
 10
0.0
 20
0.0
 30
0.0
 70
     1
  0
VERTEX
  5
277
  8
0
 10
30.575566742921179
 20
-33.375461417300819
 30
0.0
  0
VERTEX
  5
278
  8
0
 10
36.73205450435853
 20
-33.375461417300819
 30
0.0
  0
VERTEX
  5
279
  8
0
 10
36.73205450435853
 20
-31.81399108435107
 30
0.0
  0
VERTEX
  5
27A
  8
0
 10
30.575566742921179
 20
-31.813991084350619
 30
0.0
  0
SEQEND
  5
27B
  8
0
  0
LINE
  5
7E
  8
0
 10
52.804119648240892
 20
-178.5
 30
0.0
 11
-52.804119648244523
 21
-178.5
 31
0.0
  0
LINE
  5
7F
  8
0
 10
55.099999999998552
 20
-171.06675644588901
 30
0.0
 11
-55.100000000002183
 21
-171.06675644588901
 31
0.0
  0
LINE
  5
80
  8
0
 10
-55.100000000002183
 20
-171.06675644588901
 30
0.0
 11
-52.804119648244523
 21
-178.5
 31
0.0
  0
LINE
  5
81
  8
0
 10
55.099999999998552
 20
-171.06675644588901
 30
0.0
 11
52.804119648240892
 21
-178.5
 31
0.0
  0
LINE
  5
82
  8
0
 10
52.804119648240892
 20
-119.5
 30
0.0
 11
-52.804119648244523
 21
-119.5
 31
0.0
  0
LINE
  5
85
  8
0
 10
100.7040607354465
 20
-84.103165753574103
 30
0.0
 11
-0.000000000003638
 21
-88.499999999999986
 31
0.0
  0
LINE
  5
86
  8
0
 10
57.04590897018533
 20
-111.23332949140369
 30
0.0
 11
55.099999999996719
 21
-111.31828971185629
 31
0.0
  0
LINE
  5
87
  8
0
 10
61.753590623315169
 20
-58.577866968957551
 30
0.0
 11
64.126485295988459
 21
-112.92609022301031
 31
0.0
  0
LINE
  5
88
  8
0
 10
54.848802285031518
 20
-60.911313089737178
 30
0.0
 11
57.04590897018533
 21
-111.23332949140369
 31
0.0
  0
LINE
  5
89
  8
0
 10
61.753590623315169
 20
-58.577866968957551
 30
0.0
 11
55.125638759785041
 21
-60.788527131348467
 31
0.0
  0
LINE
  5
8A
  8
0
 10
64.126485295988459
 20
-112.92609022301031
 30
0.0
 11
57.04590897018533
 21
-111.23332949140369
 31
0.0
  0
INSERT
  5
8B
  8
0
  6
CONTINUOUS
  2
*U5
 10
0.0
 20
0.0
 30
0.0
  0
POLYLINE
  5
8C
  8
0
 66
     1
 10
0.0
 20
0.0
 30
0.0
 70
     1
  0
VERTEX
  5
280
  8
0
 10
81.233254049470816
 20
-73.536917359064773
 30
0.0
  0
VERTEX
  5
281
  8
0
 10
80.921063087226685
 20
-66.386568753486699
 30
0.0
  0
VERTEX
  5
282
  8
0
 10
78.56623176564608
 20
-66.489382909377582
 30
0.0
  0
VERTEX
  5
283
  8
0
 10
78.878422727890211
 20
-73.639731514955656
 30
0.0
  0
SEQEND
  5
284
  8
0
  0
POLYLINE
  5
8D
  8
0
 66
     1
 10
0.0
 20
0.0
 30
0.0
 70
     1
  0
VERTEX
  5
285
  8
0
 10
64.674802165017354
 20
-74.866202324004917
 30
0.0
  0
VERTEX
  5
286
  8
0
 10
64.489041910658671
 20
-70.611593009962235
 30
0.0
  0
VERTEX
  5
287
  8
0
 10
65.629163274350503
 20
-70.561814236193186
 30
0.0
  0
VERTEX
  5
288
  8
0
 10
65.814923528709187
 20
-74.816423550236323
 30
0.0
  0
SEQEND
  5
289
  8
0
  0
LINE
  5
8E
  8
0
 10
71.801228737105703
 20
-74.204803448506027
 30
0.0
 11
71.551535953003622
 21
-68.485898462297882
 31
0.0
  0
POLYLINE
  5
8F
  8
0
 66
     1
 10
0.0
 20
0.0
 30
0.0
 70
     1
  0
VERTEX
  5
28A
  8
0
 10
71.801228737105703
 20
-74.204803448506027
 30
0.0
  0
VERTEX
  5
28B
  8
0
 10
71.53268651262988
 20
-68.05417529925171
 30
0.0
  0
VERTEX
  5
28C
  8
0
 10
73.09267067181645
 20
-67.986064919939054
 30
0.0
  0
VERTEX
  5
28D
  8
0
 10
73.361212896292272
 20
-74.136693069193825
 30
0.0
  0
SEQEND
  5
28E
  8
0
  0
POLYLINE
  5
90
  8
0
 66
     1
 10
0.0
 20
0.0
 30
0.0
 70
     1
  0
VERTEX
  5
28F
  8
0
 10
82.229566012246323
 20
-96.35621296757472
 30
0.0
  0
VERTEX
  5
290
  8
0
 10
82.541756974490454
 20
-103.50656157315279
 30
0.0
  0
VERTEX
  5
291
  8
0
 10
80.186925652909849
 20
-103.60937572904361
 30
0.0
  0
VERTEX
  5
292
  8
0
 10
79.874734690665704
 20
-96.459027123465148
 30
0.0
  0
SEQEND
  5
293
  8
0
  0
POLYLINE
  5
91
  8
0
 66
     1
 10
0.0
 20
0.0
 30
0.0
 70
     1
  0
VERTEX
  5
294
  8
0
 10
65.618269217903617
 20
-96.475150505988964
 30
0.0
  0
VERTEX
  5
295
  8
0
 10
65.8040294722623
 20
-100.7297598200321
 30
0.0
  0
VERTEX
  5
296
  8
0
 10
66.944150835954133
 20
-100.67998104626299
 30
0.0
  0
VERTEX
  5
297
  8
0
 10
66.758390581595449
 20
-96.425371732219901
 30
0.0
  0
SEQEND
  5
298
  8
0
  0
LINE
  5
92
  8
0
 10
72.77522229560509
 20
-96.512923558058006
 30
0.0
 11
73.024915079707171
 21
-102.23182854426661
 31
0.0
  0
POLYLINE
  5
93
  8
0
 66
     1
 10
0.0
 20
0.0
 30
0.0
 70
     1
  0
VERTEX
  5
299
  8
0
 10
72.77522229560509
 20
-96.512923558058006
 30
0.0
  0
VERTEX
  5
29A
  8
0
 10
73.043764520080913
 20
-102.66355170731271
 30
0.0
  0
VERTEX
  5
29B
  8
0
 10
74.603748679267483
 20
-102.5954413280005
 30
0.0
  0
VERTEX
  5
29C
  8
0
 10
74.33520645479166
 20
-96.444813178745775
 30
0.0
  0
SEQEND
  5
29D
  8
0
  0
ARC
  5
94
  8
0
 10
66.437314116974434
 20
-86.665604476394947
 30
0.0
 40
28.24140809711756
 50
113.6116347355284
 51
180.33821030275709
  0
ARC
  5
95
  8
0
 10
63.425655234640537
 20
-87.49318447512951
 30
0.0
 40
25.237911455333659
 50
178.4994919177054
 51
250.7380918082157
  0
LINE
  5
96
  8
0
 10
55.099999999996719
 20
-17.9647538431127
 30
0.0
 11
-55.100000000003092
 21
-17.964753843113609
 31
0.0
  0
LINE
  5
97
  8
0
 10
-65.612000000001899
 20
-17.9647538431127
 30
0.0
 11
65.611999999995533
 21
-17.964753843113609
 31
0.0
  0
LINE
  5
98
  8
0
 10
-58.412000000002081
 20
0.0
 30
0.0
 11
-58.412000000002081
 21
-2.159999999999854
 31
0.0
  0
LINE
  5
99
  8
0
 10
-58.411999999999352
 20
-14.595386816942661
 30
0.0
 11
-58.412000000000262
 21
-15.08475384311259
 31
0.0
  0
LINE
  5
9A
  8
0
 10
-58.41200000000299
 20
-20.881728076453332
 30
0.0
 11
-58.412000000000262
 21
-46.499999999999083
 31
0.0
  0
LINE
  5
9B
  8
0
 10
58.412000000000262
 20
0.0
 30
0.0
 11
58.412000000000262
 21
-2.159999999999854
 31
0.0
  0
LINE
  5
9C
  8
0
 10
58.411999999997533
 20
-14.595386816942661
 30
0.0
 11
58.411999999999352
 21
-15.08475384311259
 31
0.0
  0
LINE
  5
9D
  8
0
 10
58.411999999999352
 20
-20.881728076458788
 30
0.0
 11
58.411999999999352
 21
-46.5
 31
0.0
  0
LINE
  5
9E
  8
0
 10
-65.612000000000975
 20
-15.08475384311259
 30
0.0
 11
65.611999999997352
 21
-15.08475384311259
 31
0.0
  0
LINE
  5
9F
  8
0
 10
-65.612000000001899
 20
-15.08475384311259
 30
0.0
 11
-65.612000000002809
 21
-17.9647538431127
 31
0.0
  0
LINE
  5
A0
  8
0
 10
65.611999999997352
 20
-15.08475384311259
 30
0.0
 11
65.611999999996442
 21
-17.9647538431127
 31
0.0
  0
LINE
  5
A1
  8
0
 10
-63.993480370560057
 20
-2.159999999999854
 30
0.0
 11
-0.000000000003638
 21
-2.159999999999854
 31
0.0
  0
LINE
  5
A2
  8
0
 10
-0.000000000003638
 20
-14.595386816942661
 30
0.0
 11
-66.475022670399994
 21
-14.595386816942661
 31
0.0
  0
LINE
  5
A3
  8
0
 10
-66.475022670399994
 20
-14.595386816942661
 30
0.0
 11
-63.993480370560057
 21
-2.159999999999854
 31
0.0
  0
LINE
  5
A4
  8
0
 10
63.993480370558238
 20
-2.159999999999854
 30
0.0
 11
-0.000000000003638
 21
-2.159999999999854
 31
0.0
  0
LINE
  5
A5
  8
0
 10
-0.000000000003638
 20
-14.595386816942661
 30
0.0
 11
66.475022670399085
 21
-14.595386816942661
 31
0.0
  0
LINE
  5
A6
  8
0
 10
66.475022670399085
 20
-14.595386816942661
 30
0.0
 11
63.993480370558238
 21
-2.159999999999854
 31
0.0
  0
LINE
  5
A7
  8
0
 10
-58.411999999999352
 20
0.0
 30
0.0
 11
-58.412000000002081
 21
-2.159999999999854
 31
0.0
  0
LINE
  5
A8
  8
0
 10
-58.412000000000262
 20
-20.881728076453332
 30
0.0
 11
-58.412000000000262
 21
-46.499999999999083
 31
0.0
  0
LINE
  5
A9
  8
0
 10
-58.412000000000262
 20
0.0
 30
0.0
 11
58.411999999999352
 21
0.0
 31
0.0
  0
ARC
  5
AA
  8
0
 10
61.328974233345441
 20
-20.881728076458788
 30
0.0
 40
2.91697423334579
 50
90.0
 51
180.0
  0
ARC
  5
AB
  8
0
 10
-61.328974233349072
 20
-20.881728076453332
 30
0.0
 40
2.91697423334579
 50
0.0
 51
90.0
  0
LINE
  5
AC
  8
0
 10
-1.4400000000005091
 20
-2.159999999999854
 30
0.0
 11
-1.4400000000023281
 21
-14.595386816942661
 31
0.0
  0
LINE
  5
AE
  8
0
 10
1.4399999999968709
 20
-2.159999999999854
 30
0.0
 11
1.4399999999968709
 21
-14.595386816942661
 31
0.0
  0
LINE
  5
AF
  8
0
 10
-16.648208166349828
 20
-2.159999999999854
 30
0.0
 11
-17.28000000000247
 21
-14.595386816942661
 31
0.0
  0
LINE
  5
B0
  8
0
 10
16.648208166342549
 20
-2.159999999999854
 30
0.0
 11
17.279999999995201
 21
-14.595386816942661
 31
0.0
  0
LINE
  5
B1
  8
0
 10
-47.05661267751838
 20
-2.159999999999854
 30
0.0
 11
-48.331999999999418
 21
-14.595386816942661
 31
0.0
  0
LINE
  5
B2
  8
0
 10
-49.396519243113289
 20
-2.159999999999854
 30
0.0
 11
-50.67190656559432
 21
-14.595386816942661
 31
0.0
  0
LINE
  5
B3
  8
0
 10
47.056612677516569
 20
-2.159999999999854
 30
0.0
 11
48.331999999997599
 21
-14.595386816942661
 31
0.0
  0
LINE
  5
B4
  8
0
 10
49.39651924311147
 20
-2.159999999999854
 30
0.0
 11
50.671906565592508
 21
-14.595386816942661
 31
0.0
  0
LINE
  5
B5
  8
0
 10
83.840154428826281
 20
-52.608783341784601
 30
0.0
 11
86.649242975152447
 21
-116.9474888116533
 31
0.0
  0
LINE
  5
B6
  8
0
 10
99.517613399109905
 20
-56.929054126549552
 30
0.0
 11
98.019041066737387
 21
-56.994483207597561
 31
0.0
  0
LINE
  5
B7
  8
0
 10
86.395862570758254
 20
-57.501962140327578
 30
0.0
 11
86.056347808816099
 21
-57.516785674964467
 31
0.0
  0
LINE
  5
B8
  8
0
 10
101.89050807178231
 20
-111.2772773806023
 30
0.0
 11
100.3919357394097
 21
-111.34270646165029
 31
0.0
  0
LINE
  5
B9
  8
0
 10
88.768757243430628
 20
-111.8501853943776
 30
0.0
 11
88.429242481488473
 21
-111.8650089290154
 31
0.0
  0
LINE
  5
BA
  8
0
 10
85.838250871990567
 20
-52.521544567055109
 30
0.0
 11
88.647339418314914
 21
-116.8602500369238
 31
0.0
  0
LINE
  5
BB
  8
0
 10
85.838250871989644
 20
-52.521544567054207
 30
0.0
 11
83.840154428826281
 21
-52.608783341783692
 31
0.0
  0
LINE
  5
BC
  8
0
 10
88.647339418314914
 20
-116.8602500369238
 30
0.0
 11
86.649242975152447
 21
-116.9474888116533
 31
0.0
  0
LINE
  5
BD
  8
0
 10
97.849971098435162
 20
-53.122144292318353
 30
0.0
 11
99.205488403073105
 21
-84.168594834622596
 31
0.0
  0
LINE
  5
BE
  8
0
 10
87.582309907094896
 20
-84.676073767350772
 30
0.0
 11
86.151623606039735
 21
-51.907970154605657
 31
0.0
  0
LINE
  5
BF
  8
0
 10
86.151623606039735
 20
-51.907970154605657
 30
0.0
 11
97.849971098435162
 21
-53.122144292318353
 31
0.0
  0
LINE
  5
C0
  8
0
 10
100.5610057077119
 20
-115.2150453769277
 30
0.0
 11
99.205488403073105
 21
-84.168594834622596
 31
0.0
  0
LINE
  5
C1
  8
0
 10
87.582309907094896
 20
-84.676073767350772
 30
0.0
 11
89.012996208150085
 21
-117.4441773800977
 31
0.0
  0
LINE
  5
C2
  8
0
 10
89.012996208150085
 20
-117.4441773800977
 30
0.0
 11
100.5610057077119
 21
-115.2150453769277
 31
0.0
  0
LINE
  5
C3
  8
0
 10
99.517613399109905
 20
-56.929054126551357
 30
0.0
 11
98.019041066737387
 21
-56.994483207597561
 31
0.0
  0
LINE
  5
C4
  8
0
 10
99.517613399109905
 20
-56.929054126550447
 30
0.0
 11
101.89050807178231
 21
-111.2772773806014
 31
0.0
  0
ARC
  5
C5
  8
0
 10
84.495756252767023
 20
-114.06435502960861
 30
0.0
 40
2.025676550934576
 50
2.499999999992486
 51
92.500000000018517
  0
ARC
  5
C6
  8
0
 10
81.94614403979358
 20
-55.668634664133151
 30
0.0
 40
2.025676550934576
 50
272.50000000001847
 51
2.499999999992486
  0
LINE
  5
C7
  8
0
 10
99.161869015708376
 20
-83.169546613043636
 30
0.0
 11
87.538690519729244
 21
-83.677025545769979
 31
0.0
  0
LINE
  5
C8
  8
0
 10
99.249107790439666
 20
-85.167643056204255
 30
0.0
 11
87.625929294459624
 21
-85.675121988932446
 31
0.0
  0
LINE
  5
C9
  8
0
 10
98.701193513527869
 20
-72.618342917182872
 30
0.0
 11
87.058877258710694
 21
-72.687495108369603
 31
0.0
  0
LINE
  5
CA
  8
0
 10
99.709783292619235
 20
-95.718846752062291
 30
0.0
 11
88.105742555478173
 21
-96.664652426331941
 31
0.0
  0
LINE
  5
CB
  8
0
 10
100.2455392720294
 20
-107.9896760956521
 30
0.0
 11
88.660993841092932
 21
-109.3819976925147
 31
0.0
  0
LINE
  5
CC
  8
0
 10
100.3164179462546
 20
-109.613064632475
 30
0.0
 11
88.731872515316354
 21
-111.00538622933659
 31
0.0
  0
LINE
  5
CD
  8
0
 10
98.165437534117714
 20
-60.347513573594817
 30
0.0
 11
86.503625973096845
 21
-59.970149842188682
 31
0.0
  0
LINE
  5
CE
  8
0
 10
98.094558859893354
 20
-58.724125036771049
 30
0.0
 11
86.432747298872513
 21
-58.346761305365817
 31
0.0
  0
LINE
  5
CF
  8
0
 10
82.034502809945479
 20
-57.692383219844942
 30
0.0
 11
61.753590623315169
 21
-58.577866968957551
 31
0.0
  0
LINE
  5
D0
  8
0
 10
84.407397482614215
 20
-112.0406064738977
 30
0.0
 11
64.126485295988459
 21
-112.92609022301031
 31
0.0
  0
VIEWPORT
  5
1C1
 67
     1
  8
0
  6
CONTINUOUS
 10
128.5
 20
97.5
 30
0.0
 40
348.79216438356173
 41
222.18000000000001
 68
     1
 69
     1
1001
ACAD
1000
MVIEW
1002
{
1070
    16
1010
0.0
1020
0.0
1030
0.0
1010
0.0
1020
0.0
1030
1.0
1040
0.0
1040
222.18000000000001
1040
128.5
1040
97.5
1040
50.0
1040
0.0
1040
0.0
1070
     0
1070
  1000
1070
     1
1070
     1
1070
     0
1070
     0
1070
     0
1070
     0
1040
0.0
1040
0.0
1040
0.0
1040
10.0
1040
10.0
1040
10.0
1040
10.0
1070
     0
1002
{
1002
}
1002
}
  0
VIEWPORT
  5
1C5
 67
     1
  8
0
  6
CONTINUOUS
 10
128.5
 20
97.5
 30
0.0
 40
205.59999999999999
 41
156.0
 68
     2
 69
     2
1001
ACAD
1000
MVIEW
1002
{
1070
    16
1010
30714.317967474461
1020
7339.7553224022467
1030
0.0
1010
-38962.971254248441
1020
-38962.97125424847
1030
38962.97125424847
1040
0.0000000000000005
1040
187.75476766914781
1040
-16452.681208436261
1040
-15564.717370017101
1040
50.0
1040
0.0
1040
0.0
1070
     0
1070
  1000
1070
     1
1070
     3
1070
     0
1070
     0
1070
     0
1070
     0
1040
0.0
1040
0.0
1040
0.0
1040
10.0
1040
10.0
1040
10.0
1040
10.0
1070
     0
1002
{
1002
}
1002
}
  0
ENDSEC
  0
EOF
