  0
SECTION
  2
HEADER
  9
$ACADVER
  1
AC1009
  9
$INSBASE
 10
0.0
 20
0.0
 30
0.0
  9
$EXTMIN
 10
-66.475022670396356
 20
-218.5
 30
0.0
  9
$EXTMAX
 10
124.0095786811907
 20
0.0
 30
0.0
  9
$LIMMIN
 10
0.0
 20
0.0
  9
$LIMMAX
 10
420.0
 20
297.0
  9
$ORTHOMODE
 70
     0
  9
$REGENMODE
 70
     1
  9
$FILLMODE
 70
     1
  9
$QTEXTMODE
 70
     0
  9
$MIRRTEXT
 70
     0
  9
$DRAGMODE
 70
     2
  9
$LTSCALE
 40
1.0
  9
$OSMODE
 70
   127
  9
$ATTMODE
 70
     1
  9
$TEXTSIZE
 40
2.5
  9
$TRACEWID
 40
1.0
  9
$TEXTSTYLE
  7
STANDARD
  9
$CLAYER
  8
0
  9
$CELTYPE
  6
CONTINUOUS
  9
$CECOLOR
 62
   256
  9
$DIMSCALE
 40
1.0
  9
$DIMASZ
 40
2.5
  9
$DIMEXO
 40
0.625
  9
$DIMDLI
 40
3.75
  9
$DIMRND
 40
0.0
  9
$DIMDLE
 40
0.0
  9
$DIMEXE
 40
1.25
  9
$DIMTP
 40
0.0
  9
$DIMTM
 40
0.0
  9
$DIMTXT
 40
2.5
  9
$DIMCEN
 40
2.5
  9
$DIMTSZ
 40
0.0
  9
$DIMTOL
 70
     0
  9
$DIMLIM
 70
     0
  9
$DIMTIH
 70
     0
  9
$DIMTOH
 70
     0
  9
$DIMSE1
 70
     0
  9
$DIMSE2
 70
     0
  9
$DIMTAD
 70
     1
  9
$DIMZIN
 70
     8
  9
$DIMBLK
  1

  9
$DIMASO
 70
     1
  9
$DIMSHO
 70
     1
  9
$DIMPOST
  1

  9
$DIMAPOST
  1

  9
$DIMALT
 70
     0
  9
$DIMALTD
 70
     3
  9
$DIMALTF
 40
0.03937007874016
  9
$DIMLFAC
 40
1.0
  9
$DIMTOFL
 70
     1
  9
$DIMTVP
 40
0.0
  9
$DIMTIX
 70
     0
  9
$DIMSOXD
 70
     0
  9
$DIMSAH
 70
     0
  9
$DIMBLK1
  1

  9
$DIMBLK2
  1

  9
$DIMSTYLE
  2
STANDARD
  9
$DIMCLRD
 70
     0
  9
$DIMCLRE
 70
     0
  9
$DIMCLRT
 70
     0
  9
$DIMTFAC
 40
1.0
  9
$DIMGAP
 40
0.625
  9
$LUNITS
 70
     2
  9
$LUPREC
 70
     4
  9
$SKETCHINC
 40
1.0
  9
$FILLETRAD
 40
3.0
  9
$AUNITS
 70
     0
  9
$AUPREC
 70
     0
  9
$MENU
  1
.
  9
$ELEVATION
 40
0.0
  9
$PELEVATION
 40
0.0
  9
$THICKNESS
 40
0.0
  9
$LIMCHECK
 70
     0
  9
$BLIPMODE
 70
     0
  9
$CHAMFERA
 40
0.0
  9
$CHAMFERB
 40
0.0
  9
$SKPOLY
 70
     0
  9
$TDCREATE
 40
2455559.2317578131
  9
$TDUPDATE
 40
2457377.7273472799
  9
$TDINDWG
 40
2.9209406134
  9
$TDUSRTIMER
 40
2.9209366319000001
  9
$USRTIMER
 70
     1
  9
$ANGBASE
 50
0.0
  9
$ANGDIR
 70
     0
  9
$PDMODE
 70
     0
  9
$PDSIZE
 40
0.0
  9
$PLINEWID
 40
0.0
  9
$COORDS
 70
     2
  9
$SPLFRAME
 70
     0
  9
$SPLINETYPE
 70
     6
  9
$SPLINESEGS
 70
     8
  9
$ATTDIA
 70
     1
  9
$ATTREQ
 70
     1
  9
$HANDLING
 70
     1
  9
$HANDSEED
  5
2D7
  9
$SURFTAB1
 70
     6
  9
$SURFTAB2
 70
     6
  9
$SURFTYPE
 70
     6
  9
$SURFU
 70
     6
  9
$SURFV
 70
     6
  9
$UCSNAME
  2

  9
$UCSORG
 10
0.0
 20
0.0
 30
0.0
  9
$UCSXDIR
 10
1.0
 20
0.0
 30
0.0
  9
$UCSYDIR
 10
0.0
 20
1.0
 30
0.0
  9
$PUCSNAME
  2

  9
$PUCSORG
 10
0.0
 20
0.0
 30
0.0
  9
$PUCSXDIR
 10
1.0
 20
0.0
 30
0.0
  9
$PUCSYDIR
 10
0.0
 20
1.0
 30
0.0
  9
$USERI1
 70
     0
  9
$USERI2
 70
     0
  9
$USERI3
 70
     0
  9
$USERI4
 70
     0
  9
$USERI5
 70
     0
  9
$USERR1
 40
0.0
  9
$USERR2
 40
0.0
  9
$USERR3
 40
0.0
  9
$USERR4
 40
0.0
  9
$USERR5
 40
0.0
  9
$WORLDVIEW
 70
     1
  9
$SHADEDGE
 70
     3
  9
$SHADEDIF
 70
    70
  9
$TILEMODE
 70
     1
  9
$MAXACTVP
 70
    64
  9
$PLIMCHECK
 70
     0
  9
$PEXTMIN
 10
25.699999999999989
 20
19.5
 30
0.0
  9
$PEXTMAX
 10
231.30000000000001
 20
175.5
 30
0.0
  9
$PLIMMIN
 10
-20.0
 20
-7.5
  9
$PLIMMAX
 10
277.0
 20
202.5
  9
$UNITMODE
 70
     0
  9
$VISRETAIN
 70
     1
  9
$PLINEGEN
 70
     0
  9
$PSLTSCALE
 70
     1
  0
ENDSEC
  0
SECTION
  2
TABLES
  0
TABLE
  2
VPORT
 70
     1
  0
VPORT
  2
*ACTIVE
 70
     0
 10
0.0
 20
0.0
 11
1.0
 21
1.0
 12
16458.127776663969
 22
5824.9361560382022
 13
0.0
 23
0.0
 14
10.0
 24
10.0
 15
10.0
 25
10.0
 16
-38962.971254248441
 26
-38962.97125424847
 36
38962.97125424847
 17
30714.317967474461
 27
7339.7553224022467
 37
0.0
 40
45085.451174768772
 41
1.56986301369863
 42
50.0
 43
0.0
 44
0.0
 50
0.0
 51
0.0000000000000313
 71
     0
 72
  1000
 73
     1
 74
     3
 75
     0
 76
     0
 77
     0
 78
     0
  0
ENDTAB
  0
TABLE
  2
LTYPE
 70
     4
  0
LTYPE
  2
CONTINUOUS
 70
     0
  3
Solid line
 72
    65
 73
     0
 40
0.0
  0
ENDTAB
  0
TABLE
  2
LAYER
 70
    10
  0
LAYER
  2
0
 70
     0
 62
     7
  6
CONTINUOUS
  0
ENDTAB
  0
TABLE
  2
STYLE
 70
     4
  0
STYLE
  2
STANDARD
 70
     0
 40
0.0
 41
1.0
 50
0.0
 71
     0
 42
2.5
  3
txt
  4

  0
STYLE
  2
INSCRIPTIONS
 70
     0
 40
0.0
 41
0.9
 50
0.0
 71
     0
 42
2.5
  3
txt
  4

  0
ENDTAB
  0
TABLE
  2
VIEW
 70
     1
  0
ENDTAB
  0
TABLE
  2
UCS
 70
     0
  0
ENDTAB
  0
TABLE
  2
APPID
 70
     7
  0
APPID
  2
ACAD
 70
     0
  0
APPID
  2
ACAD_PSEXT
 70
     0
  0
APPID
  2
ACAECLAYERSTANDARD
 70
     0
  0
APPID
  2
ACAD_NAV_VCDISPLAY
 70
     0
  0
APPID
  2
REVIT
 70
     0
  0
APPID
  2
ACAD_EXEMPT_FROM_CAD_STANDARDS
 70
     0
  0
APPID
  2
ACAD_MLEADERVER
 70
     0
  0
ENDTAB
  0
TABLE
  2
DIMSTYLE
 70
     1
  0
DIMSTYLE
  2
STANDARD
 70
     0
  3

  4

  5

  6

  7

 40
1.0
 41
0.18
 42
0.0625
 43
0.38
 44
0.18
 45
0.0
 46
0.0
 47
0.0
 48
0.0
140
0.18
141
0.09
142
0.0
143
25.399999999999999
144
1.0
145
0.0
146
1.0
147
0.09
 71
     0
 72
     0
 73
     1
 74
     1
 75
     0
 76
     0
 77
     0
 78
     0
170
     0
171
     2
172
     0
173
     0
174
     0
175
     0
176
     0
177
     0
178
     0
  0
ENDTAB
  0
ENDSEC
  0
SECTION
  2
BLOCKS
  0
BLOCK
  8
0
  2
$MODEL_SPACE
 70
     0
 10
0.0
 20
0.0
 30
0.0
  3
$MODEL_SPACE
  1

  0
ENDBLK
  5
D
  8
0
  0
BLOCK
 67
     1
  8
0
  2
$PAPER_SPACE
 70
     0
 10
0.0
 20
0.0
 30
0.0
  3
$PAPER_SPACE
  1

  0
ENDBLK
  5
1BD
 67
     1
  8
0
  0
BLOCK
  8
0
  2
*U2
 70
     1
 10
0.0
 20
0.0
 30
0.0
  3
*U2
  1

  0
TEXT
  5
253
  8
0
  6
CONTINUOUS
 10
-28.274320855829501
 20
-41.6679831018645
 30
0.0
 40
20.020769999999992
  1
110
 41
0.8
  7
INSCRIPTIONS
  0
ENDBLK
  5
255
  8
0
  0
BLOCK
  8
0
  2
*U3
 70
     1
 10
0.0
 20
0.0
 30
0.0
  3
*U3
  1

  0
TEXT
  5
266
  8
0
  6
CONTINUOUS
 10
11.21091224451447
 20
-30.083377494359048
 30
0.0
 40
8.0999999999999996
  1
45°
 41
0.7
  7
INSCRIPTIONS
  0
ENDBLK
  5
268
  8
0
  0
BLOCK
  8
0
  2
*U4
 70
     1
 10
0.0
 20
0.0
 30
0.0
  3
*U4
  1

  0
TEXT
  5
26A
  8
0
  6
CONTINUOUS
 10
6.9913979189013844
 20
-41.061455400000881
 30
0.0
 40
8.0999999999999996
  1
PP-MD
 41
0.6
  7
INSCRIPTIONS
  0
ENDBLK
  5
26C
  8
0
  0
BLOCK
  8
0
  2
*U5
 70
     1
 10
0.0
 20
0.0
 30
0.0
  3
*U5
  1

  0
TEXT
  5
27D
  8
0
  6
CONTINUOUS
 10
72.492900004176946
 20
-61.786062683138091
 30
0.0
 40
14.9688
  1
50
 50
315.00000000000011
 41
0.8
  7
INSCRIPTIONS
  0
ENDBLK
  5
27F
  8
0
  0
ENDSEC
  0
SECTION
  2
ENTITIES
  0
LINE
  5
4B
  8
0
 10
0.0
 20
0.0
 30
0.0
 11
0.0000000000009095
 21
-146.5
 31
0.0
  0
LINE
  5
4F
  8
0
 10
0.0000000000009095
 20
-159.5
 30
0.0
 11
0.0000000000009095
 21
-211.0667564458891
 31
0.0
  0
LINE
  5
50
  8
0
 10
58.41200000000299
 20
-46.5
 30
0.0
 11
-58.412000000000262
 21
-46.500000000000448
 31
0.0
  0
LINE
  5
52
  8
0
 10
-55.099999999998552
 20
-60.900000000000091
 30
0.0
 11
-27.90561951753989
 21
-60.900000000000091
 31
0.0
  0
LINE
  5
53
  8
0
 10
27.90561951753989
 20
-60.900000000000091
 30
0.0
 11
52.373522520800179
 21
-60.900000000000091
 31
0.0
  0
ARC
  5
54
  8
0
 10
0.0
 20
-39.238466151532982
 30
0.0
 40
38.954503636548402
 50
239.34608426254911
 51
300.65391573743761
  0
ARC
  5
55
  8
0
 10
0.0
 20
-39.238466151532982
 30
0.0
 40
41.834503636548398
 50
239.34608426254911
 51
300.65391573743761
  0
ARC
  5
56
  8
0
 10
14.721699018848989
 20
-64.078122716230155
 30
0.0
 40
10.08
 50
300.65391573743761
 51
356.4236656249962
  0
ARC
  5
57
  8
0
 10
14.721699018848989
 20
-64.078122716230155
 30
0.0
 40
12.960000000000001
 50
300.65391573743761
 51
356.4236656249962
  0
ARC
  5
58
  8
0
 10
-14.721699018852631
 20
-64.078122716228791
 30
0.0
 40
10.08
 50
183.5763343750038
 51
239.34608426254911
  0
ARC
  5
59
  8
0
 10
-14.721699018852631
 20
-64.078122716228791
 30
0.0
 40
12.960000000000001
 50
183.5763343750038
 51
239.34608426254911
  0
LINE
  5
5A
  8
0
 10
-24.782069009959741
 20
-64.706895840673042
 30
0.0
 11
-25.828018490666182
 21
-47.971704149396821
 31
0.0
  0
LINE
  5
5B
  8
0
 10
-27.656460435991001
 20
-64.886545304799711
 30
0.0
 11
-28.713638008203819
 21
-47.971704149396821
 31
0.0
  0
LINE
  5
5C
  8
0
 10
24.782069009956111
 20
-64.706895840674861
 30
0.0
 11
25.828018490661631
 21
-47.971704149396373
 31
0.0
  0
LINE
  5
5D
  8
0
 10
27.656460435988269
 20
-64.88654530480153
 30
0.0
 11
28.713638008202899
 21
-47.971704149396373
 31
0.0
  0
LINE
  5
5E
  8
0
 10
-28.713638008202
 20
-47.971704149396821
 30
0.0
 11
-25.828018490666182
 21
-47.971704149396821
 31
0.0
  0
LINE
  5
5F
  8
0
 10
25.828018490661631
 20
-47.971704149396821
 30
0.0
 11
28.713638008202899
 21
-47.971704149396821
 31
0.0
  0
LINE
  5
60
  8
0
 10
24.984843604970589
 20
-61.462502320439391
 30
0.0
 11
13.044175147007991
 21
-61.462502320439391
 31
0.0
  0
LINE
  5
61
  8
0
 10
24.984843604970589
 20
-60.022502320439798
 30
0.0
 11
13.044175147007991
 21
-60.022502320439798
 31
0.0
  0
LINE
  5
62
  8
0
 10
11.686043102434271
 20
-62.42388206438909
 30
0.0
 11
6.3101568683678124
 21
-77.678487923983084
 31
0.0
  0
LINE
  5
63
  8
0
 10
10.327911057859639
 20
-61.945261808338273
 30
0.0
 11
4.7024368161291932
 21
-77.908098184436767
 31
0.0
  0
ARC
  5
64
  8
0
 10
13.044175147007991
 20
-62.902502320439908
 30
0.0
 40
2.879999999999999
 50
90.0
 51
160.58699732406811
  0
ARC
  5
65
  8
0
 10
13.044175147007991
 20
-62.902502320439908
 30
0.0
 40
1.4399999999998361
 50
90.0
 51
160.58699732406811
  0
LINE
  5
66
  8
0
 10
17.523836076892621
 20
-64.184837126331786
 30
0.0
 11
15.53898039031173
 21
-69.817060329844935
 31
0.0
  0
LINE
  5
67
  8
0
 10
19.042588166787031
 20
-64.720061603985869
 30
0.0
 11
17.05773248020796
 21
-70.352284807499473
 31
0.0
  0
LINE
  5
68
  8
0
 10
17.523836076892621
 20
-64.184837126331786
 30
0.0
 11
19.042588166787031
 21
-64.720061603985869
 31
0.0
  0
LINE
  5
69
  8
0
 10
15.53898039031264
 20
-69.81706032984539
 30
0.0
 11
17.05773248020796
 21
-70.352284807499473
 31
0.0
  0
LINE
  5
6A
  8
0
 10
15.36336185646269
 20
-70.315395190159961
 30
0.0
 11
16.882113946356181
 21
-70.850619667814044
 31
0.0
  0
LINE
  5
6B
  8
0
 10
15.3633618564636
 20
-70.315395190159961
 30
0.0
 11
15.73222317512591
 21
-71.691131368455444
 31
0.0
  0
LINE
  5
6C
  8
0
 10
15.73222317512591
 20
-71.691131368455444
 30
0.0
 11
16.882113946356181
 21
-70.850619667814044
 31
0.0
  0
LINE
  5
6D
  8
0
 10
57.479636423646298
 20
-50.553754679806381
 30
0.0
 11
58.41200000000299
 21
-46.5
 31
0.0
  0
LINE
  5
6E
  8
0
 10
-55.099999999998552
 20
-60.900000000000091
 30
0.0
 11
-58.412000000000262
 21
-46.500000000000448
 31
0.0
  0
LINE
  5
6F
  8
0
 10
-55.099999999998552
 20
-60.900000000000091
 30
0.0
 11
-55.099999999998552
 21
-211.0667564458891
 31
0.0
  0
LINE
  5
70
  8
0
 10
55.100000000001273
 20
-127.0381817718025
 30
0.0
 11
55.100000000001273
 21
-211.0667564458891
 31
0.0
  0
INSERT
  5
71
  8
0
  6
CONTINUOUS
  2
*U2
 10
0.0
 20
0.0
 30
0.0
  0
POLYLINE
  5
74
  8
0
 66
     1
 10
0.0
 20
0.0
 30
0.0
 70
     1
  0
VERTEX
  5
256
  8
0
 10
-30.831397987059969
 20
-23.147178048348909
 30
0.0
  0
VERTEX
  5
257
  8
0
 10
-37.988558623666911
 20
-23.147178048348909
 30
0.0
  0
VERTEX
  5
258
  8
0
 10
-37.988558623666911
 20
-25.504252782791809
 30
0.0
  0
VERTEX
  5
259
  8
0
 10
-30.831397987059969
 20
-25.504252782791809
 30
0.0
  0
SEQEND
  5
25A
  8
0
  0
POLYLINE
  5
75
  8
0
 66
     1
 10
0.0
 20
0.0
 30
0.0
 70
     1
  0
VERTEX
  5
25B
  8
0
 10
-30.225647733778711
 20
-41.106031878635342
 30
0.0
  0
VERTEX
  5
25C
  8
0
 10
-34.484310350991109
 20
-41.106031878635342
 30
0.0
  0
VERTEX
  5
25D
  8
0
 10
-34.484310350991109
 20
-39.964824338235758
 30
0.0
  0
VERTEX
  5
25E
  8
0
 10
-30.225647733778711
 20
-39.964824338235758
 30
0.0
  0
SEQEND
  5
25F
  8
0
  0
LINE
  5
76
  8
0
 10
-30.575566742923911
 20
-33.375461417301722
 30
0.0
 11
-36.299920045063118
 21
-33.375461417301722
 31
0.0
  0
POLYLINE
  5
77
  8
0
 66
     1
 10
0.0
 20
0.0
 30
0.0
 70
     1
  0
VERTEX
  5
260
  8
0
 10
-30.575566742923911
 20
-33.375461417301722
 30
0.0
  0
VERTEX
  5
261
  8
0
 10
-36.732054504361258
 20
-33.375461417301722
 30
0.0
  0
VERTEX
  5
262
  8
0
 10
-36.732054504361258
 20
-31.813991084351532
 30
0.0
  0
VERTEX
  5
263
  8
0
 10
-30.575566742923911
 20
-31.813991084351532
 30
0.0
  0
SEQEND
  5
264
  8
0
  0
INSERT
  5
78
  8
0
  6
CONTINUOUS
  2
*U3
 10
0.0
 20
0.0
 30
0.0
  0
INSERT
  5
79
  8
0
  6
CONTINUOUS
  2
*U4
 10
0.0
 20
0.0
 30
0.0
  0
POLYLINE
  5
7A
  8
0
 66
     1
 10
0.0
 20
0.0
 30
0.0
 70
     1
  0
VERTEX
  5
26D
  8
0
 10
30.831397987059969
 20
-23.147178048348451
 30
0.0
  0
VERTEX
  5
26E
  8
0
 10
37.988558623667821
 20
-23.147178048348
 30
0.0
  0
VERTEX
  5
26F
  8
0
 10
37.988558623667821
 20
-25.504252782791351
 30
0.0
  0
VERTEX
  5
270
  8
0
 10
30.831397987059969
 20
-25.504252782791351
 30
0.0
  0
SEQEND
  5
271
  8
0
  0
POLYLINE
  5
7B
  8
0
 66
     1
 10
0.0
 20
0.0
 30
0.0
 70
     1
  0
VERTEX
  5
272
  8
0
 10
30.225647733779631
 20
-41.106031878634887
 30
0.0
  0
VERTEX
  5
273
  8
0
 10
34.484310350992018
 20
-41.10603187863444
 30
0.0
  0
VERTEX
  5
274
  8
0
 10
34.484310350992018
 20
-39.964824338235303
 30
0.0
  0
VERTEX
  5
275
  8
0
 10
30.225647733779631
 20
-39.964824338235303
 30
0.0
  0
SEQEND
  5
276
  8
0
  0
LINE
  5
7C
  8
0
 10
30.575566742924821
 20
-33.375461417300819
 30
0.0
 11
36.299920045064027
 21
-33.375461417300819
 31
0.0
  0
POLYLINE
  5
7D
  8
0
 66
     1
 10
0.0
 20
0.0
 30
0.0
 70
     1
  0
VERTEX
  5
277
  8
0
 10
30.575566742924821
 20
-33.375461417300819
 30
0.0
  0
VERTEX
  5
278
  8
0
 10
36.732054504362168
 20
-33.375461417300819
 30
0.0
  0
VERTEX
  5
279
  8
0
 10
36.732054504362168
 20
-31.81399108435107
 30
0.0
  0
VERTEX
  5
27A
  8
0
 10
30.575566742924821
 20
-31.813991084350619
 30
0.0
  0
SEQEND
  5
27B
  8
0
  0
LINE
  5
7E
  8
0
 10
52.804119648243613
 20
-218.5
 30
0.0
 11
-52.804119648241787
 21
-218.5
 31
0.0
  0
LINE
  5
7F
  8
0
 10
55.100000000001273
 20
-211.0667564458891
 30
0.0
 11
-55.099999999999447
 21
-211.0667564458891
 31
0.0
  0
LINE
  5
80
  8
0
 10
-55.099999999999447
 20
-211.0667564458891
 30
0.0
 11
-52.804119648241787
 21
-218.5
 31
0.0
  0
LINE
  5
81
  8
0
 10
55.100000000001273
 20
-211.0667564458891
 30
0.0
 11
52.804119648243613
 21
-218.5
 31
0.0
  0
LINE
  5
82
  8
0
 10
52.804119648243613
 20
-159.5
 30
0.0
 11
-52.804119648241787
 21
-159.5
 31
0.0
  0
LINE
  5
85
  8
0
 10
103.0961686969995
 20
-43.403831303001418
 30
0.0
 11
0.0000000000009095
 21
-146.5
 31
0.0
  0
LINE
  5
86
  8
0
 10
89.236875785742996
 20
-92.901305986060379
 30
0.0
 11
55.100000000001273
 21
-127.0381817718025
 31
0.0
  0
LINE
  5
87
  8
0
 10
57.28415517850317
 20
-51.049090442208119
 30
0.0
 11
95.600836816422088
 21
-89.365772080127485
 31
0.0
  0
LINE
  5
88
  8
0
 10
54.482884255288809
 20
-58.14731445560529
 30
0.0
 11
89.236875785742996
 21
-92.901305986060379
 31
0.0
  0
LINE
  5
89
  8
0
 10
95.600836816422088
 20
-89.365772080127485
 30
0.0
 11
89.236875785742996
 21
-92.901305986060379
 31
0.0
  0
INSERT
  5
8A
  8
0
  6
CONTINUOUS
  2
*U5
 10
0.0
 20
0.0
 30
0.0
  0
POLYLINE
  5
8B
  8
0
 66
     1
 10
0.0
 20
0.0
 30
0.0
 70
     1
  0
VERTEX
  5
280
  8
0
 10
81.136842033880384
 20
-49.212107077777091
 30
0.0
  0
VERTEX
  5
281
  8
0
 10
76.075965213694872
 20
-44.151230257590207
 30
0.0
  0
VERTEX
  5
282
  8
0
 10
74.409261685206729
 20
-45.817933786078349
 30
0.0
  0
VERTEX
  5
283
  8
0
 10
79.470138505392242
 20
-50.878810606265233
 30
0.0
  0
SEQEND
  5
284
  8
0
  0
POLYLINE
  5
8C
  8
0
 66
     1
 10
0.0
 20
0.0
 30
0.0
 70
     1
  0
VERTEX
  5
285
  8
0
 10
69.82672263225686
 20
-61.378886703002081
 30
0.0
  0
VERTEX
  5
286
  8
0
 10
66.815393416840379
 20
-58.367557487585138
 30
0.0
  0
VERTEX
  5
287
  8
0
 10
67.622349007398043
 20
-57.560601897027482
 30
0.0
  0
VERTEX
  5
288
  8
0
 10
70.633678222814524
 20
-60.571931112443963
 30
0.0
  0
SEQEND
  5
289
  8
0
  0
LINE
  5
8D
  8
0
 10
74.63404083268324
 20
-56.076708294109267
 30
0.0
 11
70.586311794833819
 21
-52.02897925625939
 31
0.0
  0
POLYLINE
  5
8E
  8
0
 66
     1
 10
0.0
 20
0.0
 30
0.0
 70
     1
  0
VERTEX
  5
28A
  8
0
 10
74.63404083268324
 20
-56.076708294109267
 30
0.0
  0
VERTEX
  5
28B
  8
0
 10
70.280746588279726
 20
-51.723414049705298
 30
0.0
  0
VERTEX
  5
28C
  8
0
 10
71.384872849330335
 20
-50.619287788654681
 30
0.0
  0
VERTEX
  5
28D
  8
0
 10
75.738167093733864
 20
-54.97258203305865
 30
0.0
  0
SEQEND
  5
28E
  8
0
  0
POLYLINE
  5
8F
  8
0
 66
     1
 10
0.0
 20
0.0
 30
0.0
 70
     1
  0
VERTEX
  5
28F
  8
0
 10
97.287892922224273
 20
-65.36315796612007
 30
0.0
  0
VERTEX
  5
290
  8
0
 10
102.3487697424107
 20
-70.424034786306493
 30
0.0
  0
VERTEX
  5
291
  8
0
 10
100.6820662139225
 20
-72.090738314794635
 30
0.0
  0
VERTEX
  5
292
  8
0
 10
95.621189393736131
 20
-67.029861494608213
 30
0.0
  0
SEQEND
  5
293
  8
0
  0
POLYLINE
  5
90
  8
0
 66
     1
 10
0.0
 20
0.0
 30
0.0
 70
     1
  0
VERTEX
  5
294
  8
0
 10
85.121113297000193
 20
-76.673277367744504
 30
0.0
  0
VERTEX
  5
295
  8
0
 10
88.132442512415764
 20
-79.684606583160985
 30
0.0
  0
VERTEX
  5
296
  8
0
 10
88.939398102973428
 20
-78.877650992603321
 30
0.0
  0
VERTEX
  5
297
  8
0
 10
85.928068887556947
 20
-75.86632177718684
 30
0.0
  0
SEQEND
  5
298
  8
0
  0
LINE
  5
91
  8
0
 10
90.423291705891643
 20
-71.865959167317214
 30
0.0
 11
94.471020743741974
 21
-75.913688205167546
 31
0.0
  0
POLYLINE
  5
92
  8
0
 66
     1
 10
0.0
 20
0.0
 30
0.0
 70
     1
  0
VERTEX
  5
299
  8
0
 10
90.423291705891643
 20
-71.865959167317214
 30
0.0
  0
VERTEX
  5
29A
  8
0
 10
94.776585950296067
 20
-76.219253411721638
 30
0.0
  0
VERTEX
  5
29B
  8
0
 10
95.88071221134669
 20
-75.115127150671469
 30
0.0
  0
VERTEX
  5
29C
  8
0
 10
91.527417966942267
 20
-70.761832906266591
 30
0.0
  0
SEQEND
  5
29D
  8
0
  0
LINE
  5
93
  8
0
 10
57.4796364236472
 20
-50.553754679805927
 30
0.0
 11
54.482884255288809
 21
-58.14731445560529
 31
0.0
  0
ARC
  5
94
  8
0
 10
104.8392742851956
 20
-98.919564944312256
 30
0.0
 40
64.793073910395563
 50
141.00381416567981
 51
186.3263733581814
  0
ARC
  5
95
  8
0
 10
72.471513986851278
 20
-99.288567996206439
 30
0.0
 40
32.738518031366389
 50
191.9354947402349
 51
237.9530544450204
  0
LINE
  5
96
  8
0
 10
55.100000000000371
 20
-17.9647538431127
 30
0.0
 11
-55.099999999999447
 21
-17.964753843113609
 31
0.0
  0
LINE
  5
97
  8
0
 10
-65.611999999998261
 20
-17.9647538431127
 30
0.0
 11
65.611999999999171
 21
-17.964753843113609
 31
0.0
  0
LINE
  5
98
  8
0
 10
-58.411999999998443
 20
0.0
 30
0.0
 11
-58.411999999998443
 21
-2.159999999999854
 31
0.0
  0
LINE
  5
99
  8
0
 10
-58.411999999995707
 20
-14.595386816942661
 30
0.0
 11
-58.411999999996631
 21
-15.08475384311259
 31
0.0
  0
LINE
  5
9A
  8
0
 10
-58.411999999999352
 20
-20.881728076453332
 30
0.0
 11
-58.411999999996631
 21
-46.499999999999083
 31
0.0
  0
LINE
  5
9B
  8
0
 10
58.4120000000039
 20
0.0
 30
0.0
 11
58.4120000000039
 21
-2.159999999999854
 31
0.0
  0
LINE
  5
9C
  8
0
 10
58.412000000001171
 20
-14.595386816942661
 30
0.0
 11
58.41200000000299
 21
-15.08475384311259
 31
0.0
  0
LINE
  5
9D
  8
0
 10
58.41200000000299
 20
-20.881728076458788
 30
0.0
 11
58.41200000000299
 21
-46.5
 31
0.0
  0
LINE
  5
9E
  8
0
 10
-65.611999999997352
 20
-15.08475384311259
 30
0.0
 11
65.612000000000975
 21
-15.08475384311259
 31
0.0
  0
LINE
  5
9F
  8
0
 10
-65.611999999998261
 20
-15.08475384311259
 30
0.0
 11
-65.611999999999171
 21
-17.9647538431127
 31
0.0
  0
LINE
  5
A0
  8
0
 10
65.612000000000975
 20
-15.08475384311259
 30
0.0
 11
65.61200000000008
 21
-17.9647538431127
 31
0.0
  0
LINE
  5
A1
  8
0
 10
-63.993480370556419
 20
-2.159999999999854
 30
0.0
 11
0.0
 21
-2.159999999999854
 31
0.0
  0
LINE
  5
A2
  8
0
 10
0.0
 20
-14.595386816942661
 30
0.0
 11
-66.475022670396356
 21
-14.595386816942661
 31
0.0
  0
LINE
  5
A3
  8
0
 10
-66.475022670396356
 20
-14.595386816942661
 30
0.0
 11
-63.993480370556419
 21
-2.159999999999854
 31
0.0
  0
LINE
  5
A4
  8
0
 10
63.99348037056189
 20
-2.159999999999854
 30
0.0
 11
0.0
 21
-2.159999999999854
 31
0.0
  0
LINE
  5
A5
  8
0
 10
0.0
 20
-14.595386816942661
 30
0.0
 11
66.475022670402723
 21
-14.595386816942661
 31
0.0
  0
LINE
  5
A6
  8
0
 10
66.475022670402723
 20
-14.595386816942661
 30
0.0
 11
63.99348037056189
 21
-2.159999999999854
 31
0.0
  0
LINE
  5
A7
  8
0
 10
-58.411999999995707
 20
0.0
 30
0.0
 11
-58.411999999998443
 21
-2.159999999999854
 31
0.0
  0
LINE
  5
A8
  8
0
 10
-58.411999999996631
 20
-20.881728076453332
 30
0.0
 11
-58.411999999996631
 21
-46.499999999999083
 31
0.0
  0
LINE
  5
A9
  8
0
 10
-58.411999999996631
 20
0.0
 30
0.0
 11
58.41200000000299
 21
0.0
 31
0.0
  0
ARC
  5
AA
  8
0
 10
61.328974233349072
 20
-20.881728076458788
 30
0.0
 40
2.91697423334579
 50
90.0
 51
180.0
  0
ARC
  5
AB
  8
0
 10
-61.328974233345441
 20
-20.881728076453332
 30
0.0
 40
2.91697423334579
 50
0.0
 51
90.0
  0
LINE
  5
AC
  8
0
 10
-1.4399999999968709
 20
-2.159999999999854
 30
0.0
 11
-1.4399999999986901
 21
-14.595386816942661
 31
0.0
  0
LINE
  5
AE
  8
0
 10
1.4400000000005091
 20
-2.159999999999854
 30
0.0
 11
1.4400000000005091
 21
-14.595386816942661
 31
0.0
  0
LINE
  5
AF
  8
0
 10
-16.64820816634619
 20
-2.159999999999854
 30
0.0
 11
-17.279999999998829
 21
-14.595386816942661
 31
0.0
  0
LINE
  5
B0
  8
0
 10
16.64820816634619
 20
-2.159999999999854
 30
0.0
 11
17.279999999998829
 21
-14.595386816942661
 31
0.0
  0
LINE
  5
B1
  8
0
 10
-47.05661267751475
 20
-2.159999999999854
 30
0.0
 11
-48.33199999999578
 21
-14.595386816942661
 31
0.0
  0
LINE
  5
B2
  8
0
 10
-49.396519243109651
 20
-2.159999999999854
 30
0.0
 11
-50.671906565590689
 21
-14.595386816942661
 31
0.0
  0
LINE
  5
B3
  8
0
 10
47.056612677520199
 20
-2.159999999999854
 30
0.0
 11
48.332000000001237
 21
-14.595386816942661
 31
0.0
  0
LINE
  5
B4
  8
0
 10
49.396519243115108
 20
-2.159999999999854
 30
0.0
 11
50.671906565596139
 21
-14.595386816942661
 31
0.0
  0
LINE
  5
B5
  8
0
 10
69.385496414732188
 20
-31.576826876858831
 30
0.0
 11
114.923173123143
 21
-77.11450358527054
 31
0.0
  0
LINE
  5
B6
  8
0
 10
83.862864248727405
 20
-24.17052685472845
 30
0.0
 11
82.802204076947405
 21
-25.231187026508451
 31
0.0
  0
LINE
  5
B7
  8
0
 10
74.575545787686679
 20
-33.45784531577101
 30
0.0
 11
74.335243883037037
 21
-33.698147220419742
 31
0.0
  0
LINE
  5
B8
  8
0
 10
122.3294731452752
 20
-62.637135751276219
 30
0.0
 11
121.2688129734952
 21
-63.697795923056219
 31
0.0
  0
LINE
  5
B9
  8
0
 10
113.0421546842326
 20
-71.924454212316945
 30
0.0
 11
112.8018527795839
 21
-72.164756116966601
 31
0.0
  0
LINE
  5
BA
  8
0
 10
70.799709977105522
 20
-30.162613314486411
 30
0.0
 11
116.33738668551629
 21
-75.700290022898116
 31
0.0
  0
LINE
  5
BB
  8
0
 10
70.799709977103703
 20
-30.162613314486411
 30
0.0
 11
69.385496414730369
 21
-31.576826876858831
 31
0.0
  0
LINE
  5
BC
  8
0
 10
116.33738668551629
 20
-75.700290022898116
 30
0.0
 11
114.923173123143
 21
-77.11450358527054
 31
0.0
  0
LINE
  5
BD
  8
0
 10
80.061438369250936
 20
-22.490421318811968
 30
0.0
 11
102.03550852522039
 21
-44.464491474781418
 31
0.0
  0
LINE
  5
BE
  8
0
 10
93.808850235958744
 20
-52.691149764043068
 30
0.0
 11
70.616227727198748
 21
-29.498527255283079
 31
0.0
  0
LINE
  5
BF
  8
0
 10
70.616227727198748
 20
-29.498527255283079
 30
0.0
 11
80.061438369250936
 21
-22.490421318811968
 31
0.0
  0
LINE
  5
C0
  8
0
 10
124.0095786811907
 20
-66.438561630751792
 30
0.0
 11
102.03550852522039
 21
-44.464491474781418
 31
0.0
  0
LINE
  5
C1
  8
0
 10
93.808850235958744
 20
-52.691149764043068
 30
0.0
 11
117.00147274471961
 21
-75.883772272803981
 31
0.0
  0
LINE
  5
C2
  8
0
 10
117.00147274471961
 20
-75.883772272803981
 30
0.0
 11
124.0095786811907
 21
-66.438561630751792
 31
0.0
  0
LINE
  5
C3
  8
0
 10
83.862864248728329
 20
-24.170526854730269
 30
0.0
 11
82.802204076947405
 21
-25.231187026508451
 31
0.0
  0
LINE
  5
C4
  8
0
 10
83.862864248727405
 20
-24.17052685472936
 30
0.0
 11
122.32947314527421
 21
-62.637135751276219
 31
0.0
  0
ARC
  5
C5
  8
0
 10
111.3876392172114
 20
-76.443708930652065
 30
0.0
 40
2.025676550934576
 50
45.0
 51
135.0
  0
ARC
  5
C6
  8
0
 10
70.056291069353392
 20
-35.112360782787619
 30
0.0
 40
2.025676550934576
 50
315.0
 51
45.0
  0
LINE
  5
C7
  8
0
 10
101.3284017440355
 20
-43.75738469359657
 30
0.0
 11
93.101743454772986
 21
-51.984042982857318
 31
0.0
  0
LINE
  5
C8
  8
0
 10
102.742615306407
 20
-45.171598255968092
 30
0.0
 11
94.515957017145411
 21
-53.398256545229742
 31
0.0
  0
LINE
  5
C9
  8
0
 10
93.860466241172617
 20
-36.289449190734558
 30
0.0
 11
85.323568861721469
 21
-44.205868389804891
 31
0.0
  0
LINE
  5
CA
  8
0
 10
110.2105508092682
 20
-52.639533758830112
 30
0.0
 11
102.2941316101969
 21
-61.176431138281259
 31
0.0
  0
LINE
  5
CB
  8
0
 10
118.8956036948002
 20
-61.324586644362171
 30
0.0
 11
111.2952197280156
 21
-70.177519256099004
 31
0.0
  0
LINE
  5
CC
  8
0
 10
120.044606333603
 20
-62.473589283164067
 30
0.0
 11
112.4442223668165
 21
-71.326521894900907
 31
0.0
  0
LINE
  5
CD
  8
0
 10
85.175413355641453
 20
-27.604396305202499
 30
0.0
 11
76.322480743903725
 21
-35.204780271987147
 31
0.0
  0
LINE
  5
CE
  8
0
 10
84.026410716839564
 20
-26.4553936664006
 30
0.0
 11
75.173478105100912
 21
-34.055777633185237
 31
0.0
  0
LINE
  5
CF
  8
0
 10
71.488660695009457
 20
-36.5447304084446
 30
0.0
 11
57.13422791987432
 21
-50.899163183579731
 31
0.0
  0
LINE
  5
D0
  8
0
 10
109.95526959155541
 20
-75.01133930499509
 30
0.0
 11
95.600836816422088
 21
-89.365772080127485
 31
0.0
  0
VIEWPORT
  5
1C1
 67
     1
  8
0
  6
CONTINUOUS
 10
128.5
 20
97.5
 30
0.0
 40
348.79216438356173
 41
222.18000000000001
 68
     1
 69
     1
1001
ACAD
1000
MVIEW
1002
{
1070
    16
1010
0.0
1020
0.0
1030
0.0
1010
0.0
1020
0.0
1030
1.0
1040
0.0
1040
222.18000000000001
1040
128.5
1040
97.5
1040
50.0
1040
0.0
1040
0.0
1070
     0
1070
  1000
1070
     1
1070
     1
1070
     0
1070
     0
1070
     0
1070
     0
1040
0.0
1040
0.0
1040
0.0
1040
10.0
1040
10.0
1040
10.0
1040
10.0
1070
     0
1002
{
1002
}
1002
}
  0
VIEWPORT
  5
1C5
 67
     1
  8
0
  6
CONTINUOUS
 10
128.5
 20
97.5
 30
0.0
 40
205.59999999999999
 41
156.0
 68
     2
 69
     2
1001
ACAD
1000
MVIEW
1002
{
1070
    16
1010
30714.317967474461
1020
7339.7553224022467
1030
0.0
1010
-38962.971254248441
1020
-38962.97125424847
1030
38962.97125424847
1040
0.0000000000000005
1040
221.3791858842886
1040
-16430.718800401799
1040
-15568.367299444901
1040
50.0
1040
0.0
1040
0.0
1070
     0
1070
  1000
1070
     1
1070
     3
1070
     0
1070
     0
1070
     0
1070
     0
1040
0.0
1040
0.0
1040
0.0
1040
10.0
1040
10.0
1040
10.0
1040
10.0
1070
     0
1002
{
1002
}
1002
}
  0
ENDSEC
  0
EOF
