  0
SECTION
  2
HEADER
  9
$ACADVER
  1
AC1009
  9
$INSBASE
 10
0.0
 20
0.0
 30
0.0
  9
$EXTMIN
 10
-45.599321298886927
 20
-143.77483161439429
 30
0.0
  9
$EXTMAX
 10
110.83457651016759
 20
0.0
 30
0.0
  9
$LIMMIN
 10
0.0
 20
0.0
  9
$LIMMAX
 10
420.0
 20
297.0
  9
$ORTHOMODE
 70
     0
  9
$REGENMODE
 70
     1
  9
$FILLMODE
 70
     1
  9
$QTEXTMODE
 70
     0
  9
$MIRRTEXT
 70
     0
  9
$DRAGMODE
 70
     2
  9
$LTSCALE
 40
1.0
  9
$OSMODE
 70
   127
  9
$ATTMODE
 70
     1
  9
$TEXTSIZE
 40
2.5
  9
$TRACEWID
 40
1.0
  9
$TEXTSTYLE
  7
STANDARD
  9
$CLAYER
  8
0
  9
$CELTYPE
  6
CONTINUOUS
  9
$CECOLOR
 62
   256
  9
$DIMSCALE
 40
1.0
  9
$DIMASZ
 40
2.5
  9
$DIMEXO
 40
0.625
  9
$DIMDLI
 40
3.75
  9
$DIMRND
 40
0.0
  9
$DIMDLE
 40
0.0
  9
$DIMEXE
 40
1.25
  9
$DIMTP
 40
0.0
  9
$DIMTM
 40
0.0
  9
$DIMTXT
 40
2.5
  9
$DIMCEN
 40
2.5
  9
$DIMTSZ
 40
0.0
  9
$DIMTOL
 70
     0
  9
$DIMLIM
 70
     0
  9
$DIMTIH
 70
     0
  9
$DIMTOH
 70
     0
  9
$DIMSE1
 70
     0
  9
$DIMSE2
 70
     0
  9
$DIMTAD
 70
     1
  9
$DIMZIN
 70
     8
  9
$DIMBLK
  1

  9
$DIMASO
 70
     1
  9
$DIMSHO
 70
     1
  9
$DIMPOST
  1

  9
$DIMAPOST
  1

  9
$DIMALT
 70
     0
  9
$DIMALTD
 70
     3
  9
$DIMALTF
 40
0.03937007874016
  9
$DIMLFAC
 40
1.0
  9
$DIMTOFL
 70
     1
  9
$DIMTVP
 40
0.0
  9
$DIMTIX
 70
     0
  9
$DIMSOXD
 70
     0
  9
$DIMSAH
 70
     0
  9
$DIMBLK1
  1

  9
$DIMBLK2
  1

  9
$DIMSTYLE
  2
STANDARD
  9
$DIMCLRD
 70
     0
  9
$DIMCLRE
 70
     0
  9
$DIMCLRT
 70
     0
  9
$DIMTFAC
 40
1.0
  9
$DIMGAP
 40
0.625
  9
$LUNITS
 70
     2
  9
$LUPREC
 70
     4
  9
$SKETCHINC
 40
1.0
  9
$FILLETRAD
 40
3.0
  9
$AUNITS
 70
     0
  9
$AUPREC
 70
     0
  9
$MENU
  1
.
  9
$ELEVATION
 40
0.0
  9
$PELEVATION
 40
0.0
  9
$THICKNESS
 40
0.0
  9
$LIMCHECK
 70
     0
  9
$BLIPMODE
 70
     0
  9
$CHAMFERA
 40
0.0
  9
$CHAMFERB
 40
0.0
  9
$SKPOLY
 70
     0
  9
$TDCREATE
 40
2455559.2317578131
  9
$TDUPDATE
 40
2457377.7290585418
  9
$TDINDWG
 40
2.9209790509000002
  9
$TDUSRTIMER
 40
2.9209750693999998
  9
$USRTIMER
 70
     1
  9
$ANGBASE
 50
0.0
  9
$ANGDIR
 70
     0
  9
$PDMODE
 70
     0
  9
$PDSIZE
 40
0.0
  9
$PLINEWID
 40
0.0
  9
$COORDS
 70
     2
  9
$SPLFRAME
 70
     0
  9
$SPLINETYPE
 70
     6
  9
$SPLINESEGS
 70
     8
  9
$ATTDIA
 70
     1
  9
$ATTREQ
 70
     1
  9
$HANDLING
 70
     1
  9
$HANDSEED
  5
28B
  9
$SURFTAB1
 70
     6
  9
$SURFTAB2
 70
     6
  9
$SURFTYPE
 70
     6
  9
$SURFU
 70
     6
  9
$SURFV
 70
     6
  9
$UCSNAME
  2

  9
$UCSORG
 10
0.0
 20
0.0
 30
0.0
  9
$UCSXDIR
 10
1.0
 20
0.0
 30
0.0
  9
$UCSYDIR
 10
0.0
 20
1.0
 30
0.0
  9
$PUCSNAME
  2

  9
$PUCSORG
 10
0.0
 20
0.0
 30
0.0
  9
$PUCSXDIR
 10
1.0
 20
0.0
 30
0.0
  9
$PUCSYDIR
 10
0.0
 20
1.0
 30
0.0
  9
$USERI1
 70
     0
  9
$USERI2
 70
     0
  9
$USERI3
 70
     0
  9
$USERI4
 70
     0
  9
$USERI5
 70
     0
  9
$USERR1
 40
0.0
  9
$USERR2
 40
0.0
  9
$USERR3
 40
0.0
  9
$USERR4
 40
0.0
  9
$USERR5
 40
0.0
  9
$WORLDVIEW
 70
     1
  9
$SHADEDGE
 70
     3
  9
$SHADEDIF
 70
    70
  9
$TILEMODE
 70
     1
  9
$MAXACTVP
 70
    64
  9
$PLIMCHECK
 70
     0
  9
$PEXTMIN
 10
25.699999999999989
 20
19.5
 30
0.0
  9
$PEXTMAX
 10
231.30000000000001
 20
175.5
 30
0.0
  9
$PLIMMIN
 10
-20.0
 20
-7.5
  9
$PLIMMAX
 10
277.0
 20
202.5
  9
$UNITMODE
 70
     0
  9
$VISRETAIN
 70
     1
  9
$PLINEGEN
 70
     0
  9
$PSLTSCALE
 70
     1
  0
ENDSEC
  0
SECTION
  2
TABLES
  0
TABLE
  2
VPORT
 70
     1
  0
VPORT
  2
*ACTIVE
 70
     0
 10
0.0
 20
0.0
 11
1.0
 21
1.0
 12
16458.127776663969
 22
5824.9361560382022
 13
0.0
 23
0.0
 14
10.0
 24
10.0
 15
10.0
 25
10.0
 16
-38962.971254248441
 26
-38962.97125424847
 36
38962.97125424847
 17
30714.317967474461
 27
7339.7553224022467
 37
0.0
 40
45085.451174768772
 41
1.56986301369863
 42
50.0
 43
0.0
 44
0.0
 50
0.0
 51
0.0000000000000313
 71
     0
 72
  1000
 73
     1
 74
     3
 75
     0
 76
     0
 77
     0
 78
     0
  0
ENDTAB
  0
TABLE
  2
LTYPE
 70
     4
  0
LTYPE
  2
CONTINUOUS
 70
     0
  3
Solid line
 72
    65
 73
     0
 40
0.0
  0
ENDTAB
  0
TABLE
  2
LAYER
 70
    10
  0
LAYER
  2
0
 70
     0
 62
     7
  6
CONTINUOUS
  0
ENDTAB
  0
TABLE
  2
STYLE
 70
     4
  0
STYLE
  2
STANDARD
 70
     0
 40
0.0
 41
1.0
 50
0.0
 71
     0
 42
2.5
  3
txt
  4

  0
STYLE
  2
INSCRIPTIONS
 70
     0
 40
0.0
 41
0.9
 50
0.0
 71
     0
 42
2.5
  3
txt
  4

  0
ENDTAB
  0
TABLE
  2
VIEW
 70
     1
  0
ENDTAB
  0
TABLE
  2
UCS
 70
     0
  0
ENDTAB
  0
TABLE
  2
APPID
 70
     7
  0
APPID
  2
ACAD
 70
     0
  0
APPID
  2
ACAD_PSEXT
 70
     0
  0
APPID
  2
ACAECLAYERSTANDARD
 70
     0
  0
APPID
  2
ACAD_NAV_VCDISPLAY
 70
     0
  0
APPID
  2
REVIT
 70
     0
  0
APPID
  2
ACAD_EXEMPT_FROM_CAD_STANDARDS
 70
     0
  0
APPID
  2
ACAD_MLEADERVER
 70
     0
  0
ENDTAB
  0
TABLE
  2
DIMSTYLE
 70
     1
  0
DIMSTYLE
  2
STANDARD
 70
     0
  3

  4

  5

  6

  7

 40
1.0
 41
0.18
 42
0.0625
 43
0.38
 44
0.18
 45
0.0
 46
0.0
 47
0.0
 48
0.0
140
0.18
141
0.09
142
0.0
143
25.399999999999999
144
1.0
145
0.0
146
1.0
147
0.09
 71
     0
 72
     0
 73
     1
 74
     1
 75
     0
 76
     0
 77
     0
 78
     0
170
     0
171
     2
172
     0
173
     0
174
     0
175
     0
176
     0
177
     0
178
     0
  0
ENDTAB
  0
ENDSEC
  0
SECTION
  2
BLOCKS
  0
BLOCK
  8
0
  2
$MODEL_SPACE
 70
     0
 10
0.0
 20
0.0
 30
0.0
  3
$MODEL_SPACE
  1

  0
ENDBLK
  5
D
  8
0
  0
BLOCK
 67
     1
  8
0
  2
$PAPER_SPACE
 70
     0
 10
0.0
 20
0.0
 30
0.0
  3
$PAPER_SPACE
  1

  0
ENDBLK
  5
193
 67
     1
  8
0
  0
BLOCK
  8
0
  2
*U2
 70
     1
 10
0.0
 20
0.0
 30
0.0
  3
*U2
  1

  0
TEXT
  5
229
  8
0
  6
CONTINUOUS
 10
-21.852895868646559
 20
-38.053211957377002
 30
0.0
 40
18.710999999999999
  1
75
 41
0.8
  7
INSCRIPTIONS
  0
ENDBLK
  5
22B
  8
0
  0
BLOCK
  8
0
  2
*U3
 70
     1
 10
0.0
 20
0.0
 30
0.0
  3
*U3
  1

  0
TEXT
  5
23C
  8
0
  6
CONTINUOUS
 10
2.5803849655849258
 20
-27.914819589369571
 30
0.0
 40
8.0999999999999996
  1
87.5°
 41
0.7
  7
INSCRIPTIONS
  0
ENDBLK
  5
23E
  8
0
  0
BLOCK
  8
0
  2
*U4
 70
     1
 10
0.0
 20
0.0
 30
0.0
  3
*U4
  1

  0
TEXT
  5
240
  8
0
  6
CONTINUOUS
 10
1.5476377216873509
 20
-38.892897495011397
 30
0.0
 40
8.0999999999999996
  1
PP-MD
 41
0.6
  7
INSCRIPTIONS
  0
ENDBLK
  5
242
  8
0
  0
ENDSEC
  0
SECTION
  2
ENTITIES
  0
LINE
  5
4B
  8
0
 10
-37.699999999999818
 20
-51.418749285620827
 30
0.0
 11
-37.700000000000728
 21
-63.258330309807661
 31
0.0
  0
LINE
  5
4E
  8
0
 10
37.700000000000728
 20
-51.418749285620827
 30
0.0
 11
37.700000000000728
 21
-65.460101316993132
 31
0.0
  0
LINE
  5
4F
  8
0
 10
40.000000000001819
 20
-42.699999999999811
 30
0.0
 11
-40.0
 21
-42.699999999999811
 31
0.0
  0
ARC
  5
50
  8
0
 10
0.000000000001819
 20
-37.657268160786323
 30
0.0
 40
27.051738636491951
 50
239.34608426254911
 51
300.65391573745092
  0
ARC
  5
51
  8
0
 10
0.000000000001819
 20
-37.657268160786323
 30
0.0
 40
29.05173863649194
 50
239.34608426254911
 51
300.65391573745092
  0
ARC
  5
52
  8
0
 10
10.22340209642425
 20
-54.907029664048878
 30
0.0
 40
7.0
 50
300.65391573745092
 51
356.42366562502212
  0
ARC
  5
53
  8
0
 10
10.22340209642425
 20
-54.907029664048878
 30
0.0
 40
9.0
 50
300.65391573745092
 51
356.42366562502212
  0
ARC
  5
54
  8
0
 10
-10.22340209642425
 20
-54.907029664047514
 30
0.0
 40
7.0
 50
183.57633437497779
 51
239.34608426254911
  0
ARC
  5
55
  8
0
 10
-10.22340209642425
 20
-54.907029664047514
 30
0.0
 40
9.0
 50
183.57633437497779
 51
239.34608426254911
  0
LINE
  5
56
  8
0
 10
-17.20977014580421
 20
-55.343677667133761
 30
0.0
 11
-17.93612395184936
 21
-43.722016770414022
 31
0.0
  0
LINE
  5
57
  8
0
 10
-19.205875302770441
 20
-55.46843423944437
 30
0.0
 11
-19.940026394584489
 21
-43.722016770414022
 31
0.0
  0
LINE
  5
58
  8
0
 10
17.20977014580421
 20
-55.343677667134671
 30
0.0
 11
17.93612395184936
 21
-43.722016770414022
 31
0.0
  0
LINE
  5
59
  8
0
 10
19.205875302770441
 20
-55.468434239445287
 30
0.0
 11
19.940026394586312
 21
-43.722016770414022
 31
0.0
  0
LINE
  5
5A
  8
0
 10
-19.94002639458267
 20
-43.722016770414022
 30
0.0
 11
-17.93612395184936
 21
-43.722016770414022
 31
0.0
  0
LINE
  5
5B
  8
0
 10
17.93612395184936
 20
-43.722016770414022
 30
0.0
 11
19.940026394586312
 21
-43.722016770414022
 31
0.0
  0
LINE
  5
5C
  8
0
 10
17.350585836786191
 20
-53.090626611416162
 30
0.0
 11
9.0584549632021663
 21
-53.090626611416162
 31
0.0
  0
LINE
  5
5D
  8
0
 10
17.350585836786191
 20
-52.090626611416148
 30
0.0
 11
9.0584549632021663
 21
-52.090626611416148
 31
0.0
  0
LINE
  5
5E
  8
0
 10
8.1153077100261726
 20
-53.758251433603156
 30
0.0
 11
4.3820533808120672
 21
-64.351727724987995
 31
0.0
  0
LINE
  5
5F
  8
0
 10
7.172160456848359
 20
-53.425876255790172
 30
0.0
 11
3.2655811223139599
 21
-64.511179294747762
 31
0.0
  0
ARC
  5
60
  8
0
 10
9.0584549632021663
 20
-54.090626611416148
 30
0.0
 40
2.0
 50
90.0
 51
160.58699732404349
  0
ARC
  5
61
  8
0
 10
9.0584549632021663
 20
-54.090626611416148
 30
0.0
 40
0.9999999999998863
 50
90.0
 51
160.58699732404349
  0
LINE
  5
62
  8
0
 10
12.16933060895462
 20
-54.981136893285559
 30
0.0
 11
10.790958604384279
 21
-58.892403006836503
 31
0.0
  0
LINE
  5
63
  8
0
 10
13.22401956026988
 20
-55.352820558322939
 30
0.0
 11
11.84564755570136
 21
-59.264086671874338
 31
0.0
  0
LINE
  5
64
  8
0
 10
12.16933060895462
 20
-54.981136893285559
 30
0.0
 11
13.22401956026988
 21
-55.352820558322939
 31
0.0
  0
LINE
  5
65
  8
0
 10
10.7909586043861
 20
-58.89240300683695
 30
0.0
 11
11.84564755570136
 21
-59.264086671874338
 31
0.0
  0
LINE
  5
66
  8
0
 10
10.66900128921224
 20
-59.238468882055258
 30
0.0
 11
11.7236902405275
 21
-59.610152547092639
 31
0.0
  0
LINE
  5
67
  8
0
 10
10.66900128921224
 20
-59.238468882055258
 30
0.0
 11
10.92515498272769
 21
-60.193841228093788
 31
0.0
  0
LINE
  5
68
  8
0
 10
10.92515498272769
 20
-60.193841228093788
 30
0.0
 11
11.7236902405275
 21
-59.610152547092639
 31
0.0
  0
LINE
  5
69
  8
0
 10
37.700000000000728
 20
-51.418749285620827
 30
0.0
 11
40.000000000001819
 21
-42.699999999999811
 31
0.0
  0
LINE
  5
6A
  8
0
 10
-37.699999999999818
 20
-51.418749285620827
 30
0.0
 11
-40.0
 21
-42.699999999999811
 31
0.0
  0
INSERT
  5
6B
  8
0
  6
CONTINUOUS
  2
*U2
 10
0.0
 20
0.0
 30
0.0
  0
POLYLINE
  5
6E
  8
0
 66
     1
 10
0.0
 20
0.0
 30
0.0
 70
     1
  0
VERTEX
  5
22C
  8
0
 10
-22.983931674547421
 20
-20.978620143359421
 30
0.0
  0
VERTEX
  5
22D
  8
0
 10
-30.14109231115436
 20
-20.978620143359421
 30
0.0
  0
VERTEX
  5
22E
  8
0
 10
-30.14109231115436
 20
-23.335694877802322
 30
0.0
  0
VERTEX
  5
22F
  8
0
 10
-22.983931674547421
 20
-23.335694877802322
 30
0.0
  0
SEQEND
  5
230
  8
0
  0
POLYLINE
  5
6F
  8
0
 66
     1
 10
0.0
 20
0.0
 30
0.0
 70
     1
  0
VERTEX
  5
231
  8
0
 10
-22.378181421267069
 20
-37.57929464647669
 30
0.0
  0
VERTEX
  5
232
  8
0
 10
-26.63684403847947
 20
-37.579294646476228
 30
0.0
  0
VERTEX
  5
233
  8
0
 10
-26.63684403847947
 20
-36.438087106077091
 30
0.0
  0
VERTEX
  5
234
  8
0
 10
-22.378181421267069
 20
-36.438087106077091
 30
0.0
  0
SEQEND
  5
235
  8
0
  0
LINE
  5
70
  8
0
 10
-22.728100430411359
 20
-30.43080103964439
 30
0.0
 11
-28.45245373255057
 21
-30.43080103964439
 31
0.0
  0
POLYLINE
  5
71
  8
0
 66
     1
 10
0.0
 20
0.0
 30
0.0
 70
     1
  0
VERTEX
  5
236
  8
0
 10
-22.728100430411359
 20
-30.43080103964439
 30
0.0
  0
VERTEX
  5
237
  8
0
 10
-28.884588191849609
 20
-30.43080103964439
 30
0.0
  0
VERTEX
  5
238
  8
0
 10
-28.884588191849609
 20
-28.869330706694662
 30
0.0
  0
VERTEX
  5
239
  8
0
 10
-22.728100430411359
 20
-28.8693307066942
 30
0.0
  0
SEQEND
  5
23A
  8
0
  0
INSERT
  5
72
  8
0
  6
CONTINUOUS
  2
*U3
 10
0.0
 20
0.0
 30
0.0
  0
INSERT
  5
73
  8
0
  6
CONTINUOUS
  2
*U4
 10
0.0
 20
0.0
 30
0.0
  0
POLYLINE
  5
74
  8
0
 66
     1
 10
0.0
 20
0.0
 30
0.0
 70
     1
  0
VERTEX
  5
243
  8
0
 10
22.983931674546511
 20
-20.978620143358508
 30
0.0
  0
VERTEX
  5
244
  8
0
 10
30.14109231115345
 20
-20.978620143357599
 30
0.0
  0
VERTEX
  5
245
  8
0
 10
30.14109231115345
 20
-23.335694877800961
 30
0.0
  0
VERTEX
  5
246
  8
0
 10
22.983931674546511
 20
-23.335694877801419
 30
0.0
  0
SEQEND
  5
247
  8
0
  0
POLYLINE
  5
75
  8
0
 66
     1
 10
0.0
 20
0.0
 30
0.0
 70
     1
  0
VERTEX
  5
248
  8
0
 10
22.378181421267069
 20
-37.579294646475319
 30
0.0
  0
VERTEX
  5
249
  8
0
 10
26.636844038478561
 20
-37.579294646474871
 30
0.0
  0
VERTEX
  5
24A
  8
0
 10
26.636844038478561
 20
-36.438087106075272
 30
0.0
  0
VERTEX
  5
24B
  8
0
 10
22.37818142126617
 20
-36.438087106075727
 30
0.0
  0
SEQEND
  5
24C
  8
0
  0
LINE
  5
76
  8
0
 10
22.728100430411359
 20
-30.430801039643029
 30
0.0
 11
28.45245373255057
 21
-30.430801039643029
 31
0.0
  0
POLYLINE
  5
77
  8
0
 66
     1
 10
0.0
 20
0.0
 30
0.0
 70
     1
  0
VERTEX
  5
24D
  8
0
 10
22.728100430411359
 20
-30.430801039643029
 30
0.0
  0
VERTEX
  5
24E
  8
0
 10
28.88458819184871
 20
-30.430801039643029
 30
0.0
  0
VERTEX
  5
24F
  8
0
 10
28.88458819184871
 20
-28.869330706692839
 30
0.0
  0
VERTEX
  5
250
  8
0
 10
22.728100430411359
 20
-28.869330706692839
 30
0.0
  0
SEQEND
  5
251
  8
0
  0
LINE
  5
78
  8
0
 10
-37.699999999999818
 20
-51.418749285620827
 30
0.0
 11
-19.378902442735122
 21
-51.418749285620827
 31
0.0
  0
LINE
  5
79
  8
0
 10
19.378902442736941
 20
-51.418749285620827
 30
0.0
 11
37.700000000000728
 21
-51.418749285620827
 31
0.0
  0
LINE
  5
7A
  8
0
 10
0.0
 20
0.0
 30
0.0
 11
0.0
 21
-63.258330309808109
 31
0.0
  0
LINE
  5
7D
  8
0
 10
38.255224505387559
 20
-103.220259173082
 30
0.0
 11
109.25591351219281
 21
-106.32021620227169
 31
0.0
  0
ARC
  5
7E
  8
0
 10
40.0
 20
-63.258330309807661
 30
0.0
 40
40.0
 50
180.0
 51
267.49999999998153
  0
ARC
  5
7F
  8
0
 10
40.0
 20
-63.258330309807661
 30
0.0
 40
77.699999999999804
 50
180.0
 51
267.49999999998153
  0
LINE
  5
80
  8
0
 10
36.610773601714747
 20
-140.88437712671751
 30
0.0
 11
102.8130655158829
 21
-143.77483161439429
 31
0.0
  0
LINE
  5
81
  8
0
 10
37.700000000000728
 20
-65.460101316993132
 30
0.0
 11
106.1019673232458
 21
-68.446595707123365
 31
0.0
  0
LINE
  5
82
  8
0
 10
110.83457651016759
 20
-70.162889016630274
 30
0.0
 11
107.6772505141989
 21
-142.47754338789261
 31
0.0
  0
LINE
  5
83
  8
0
 10
106.1019673232458
 20
-68.446595707110646
 30
0.0
 11
102.81306551588381
 21
-143.7748316143838
 31
0.0
  0
LINE
  5
84
  8
0
 10
102.81306551588381
 20
-143.7748316143838
 30
0.0
 11
107.6772505141989
 21
-142.47754338789261
 31
0.0
  0
LINE
  5
85
  8
0
 10
106.1019673232458
 20
-68.446595707110646
 30
0.0
 11
110.83457651016759
 21
-70.162889016630274
 31
0.0
  0
LINE
  5
86
  8
0
 10
55.886314894829411
 20
-67.777780915494986
 30
0.0
 11
52.728988898861637
 21
-140.09243528675731
 31
0.0
  0
LINE
  5
89
  8
0
 10
37.699999999999818
 20
-16.274089938300669
 30
0.0
 11
-37.699999999999818
 21
-16.274089938300669
 31
0.0
  0
LINE
  5
8A
  8
0
 10
-44.999999999999091
 20
-16.274089938300669
 30
0.0
 11
44.999999999999091
 21
-16.274089938300669
 31
0.0
  0
LINE
  5
8B
  8
0
 10
-39.999999999999091
 20
0.0
 30
0.0
 11
-39.999999999999091
 21
-1.5
 31
0.0
  0
LINE
  5
8C
  8
0
 10
-39.999999999997272
 20
-13.93425172568277
 30
0.0
 11
-39.999999999998181
 21
-14.274089938300669
 31
0.0
  0
LINE
  5
8D
  8
0
 10
40.000000000002721
 20
0.0
 30
0.0
 11
40.000000000002721
 21
-1.5
 31
0.0
  0
LINE
  5
8E
  8
0
 10
40.000000000000909
 20
-13.93425172568277
 30
0.0
 11
40.000000000001819
 21
-14.274089938300669
 31
0.0
  0
LINE
  5
8F
  8
0
 10
40.000000000001819
 20
-18.299766489235481
 30
0.0
 11
40.000000000001819
 21
-42.699999999999811
 31
0.0
  0
LINE
  5
90
  8
0
 10
-44.999999999998167
 20
-14.274089938300669
 30
0.0
 11
45.000000000000909
 21
-14.274089938300669
 31
0.0
  0
LINE
  5
91
  8
0
 10
-44.999999999999091
 20
-14.274089938300669
 30
0.0
 11
-45.0
 21
-16.274089938300669
 31
0.0
  0
LINE
  5
92
  8
0
 10
45.000000000000909
 20
-14.274089938300669
 30
0.0
 11
45.0
 21
-16.274089938300669
 31
0.0
  0
LINE
  5
93
  8
0
 10
-43.876028035108902
 20
-1.5
 30
0.0
 11
0.000000000001819
 21
-1.5
 31
0.0
  0
LINE
  5
94
  8
0
 10
0.000000000001819
 20
-13.93425172568277
 30
0.0
 11
-45.599321298886927
 21
-13.93425172568277
 31
0.0
  0
LINE
  5
95
  8
0
 10
-45.599321298886927
 20
-13.93425172568277
 30
0.0
 11
-43.876028035108902
 21
-1.5
 31
0.0
  0
LINE
  5
96
  8
0
 10
43.87602803511254
 20
-1.5
 30
0.0
 11
0.000000000001819
 21
-1.5
 31
0.0
  0
LINE
  5
97
  8
0
 10
0.000000000001819
 20
-13.93425172568277
 30
0.0
 11
45.599321298890573
 21
-13.93425172568277
 31
0.0
  0
LINE
  5
98
  8
0
 10
45.599321298890573
 20
-13.93425172568277
 30
0.0
 11
43.87602803511254
 21
-1.5
 31
0.0
  0
LINE
  5
99
  8
0
 10
-39.999999999997272
 20
0.0
 30
0.0
 11
-39.999999999999091
 21
-1.5
 31
0.0
  0
LINE
  5
9A
  8
0
 10
-39.999999999998181
 20
-18.299766489231839
 30
0.0
 11
-39.999999999998181
 21
-42.699999999999811
 31
0.0
  0
LINE
  5
9B
  8
0
 10
-39.999999999998181
 20
0.0
 30
0.0
 11
40.000000000001819
 21
0.0
 31
0.0
  0
ARC
  5
9C
  8
0
 10
42.025676550936623
 20
-18.299766489235481
 30
0.0
 40
2.025676550934576
 50
90.0
 51
180.0
  0
ARC
  5
9D
  8
0
 10
-42.025676550934797
 20
-18.299766489231839
 30
0.0
 40
2.025676550934576
 50
0.0
 51
90.0
  0
LINE
  5
9E
  8
0
 10
-0.999999999996362
 20
-1.5
 30
0.0
 11
-0.9999999999972715
 21
-13.93425172568277
 31
0.0
  0
LINE
  5
A0
  8
0
 10
1.0000000000018181
 20
-1.5
 30
0.0
 11
1.0000000000018181
 21
-13.93425172568277
 31
0.0
  0
LINE
  5
A1
  8
0
 10
-11.5612556710721
 20
-1.5
 30
0.0
 11
-11.99999999999727
 21
-13.93425172568277
 31
0.0
  0
LINE
  5
A2
  8
0
 10
11.56125567107574
 20
-1.5
 30
0.0
 11
12.000000000000909
 21
-13.93425172568277
 31
0.0
  0
LINE
  5
A3
  8
0
 10
-32.114314359385389
 20
-1.5
 30
0.0
 11
-32.999999999997272
 21
-13.93425172568277
 31
0.0
  0
LINE
  5
A4
  8
0
 10
-33.739249474381722
 20
-1.5
 30
0.0
 11
-34.624935114993598
 21
-13.93425172568277
 31
0.0
  0
LINE
  5
A5
  8
0
 10
32.114314359389027
 20
-1.5
 30
0.0
 11
33.000000000000909
 21
-13.93425172568277
 31
0.0
  0
LINE
  5
A6
  8
0
 10
33.73924947438536
 20
-1.5
 30
0.0
 11
34.62493511499725
 21
-13.93425172568277
 31
0.0
  0
VIEWPORT
  5
197
 67
     1
  8
0
  6
CONTINUOUS
 10
128.5
 20
97.5
 30
0.0
 40
348.79216438356173
 41
222.18000000000001
 68
     1
 69
     1
1001
ACAD
1000
MVIEW
1002
{
1070
    16
1010
0.0
1020
0.0
1030
0.0
1010
0.0
1020
0.0
1030
1.0
1040
0.0
1040
222.18000000000001
1040
128.5
1040
97.5
1040
50.0
1040
0.0
1040
0.0
1070
     0
1070
  1000
1070
     1
1070
     1
1070
     0
1070
     0
1070
     0
1070
     0
1040
0.0
1040
0.0
1040
0.0
1040
10.0
1040
10.0
1040
10.0
1040
10.0
1070
     0
1002
{
1002
}
1002
}
  0
VIEWPORT
  5
19B
 67
     1
  8
0
  6
CONTINUOUS
 10
128.5
 20
97.5
 30
0.0
 40
205.59999999999999
 41
156.0
 68
     2
 69
     2
1001
ACAD
1000
MVIEW
1002
{
1070
    16
1010
30714.317967474461
1020
7339.7553224022467
1030
0.0
1010
-38962.971254248441
1020
-38962.97125424847
1030
38962.97125424847
1040
0.0000000000000005
1040
162.4999178342824
1040
-16454.415528734909
1040
-15551.54218967889
1040
50.0
1040
0.0
1040
0.0
1070
     0
1070
  1000
1070
     1
1070
     3
1070
     0
1070
     0
1070
     0
1070
     0
1040
0.0
1040
0.0
1040
0.0
1040
10.0
1040
10.0
1040
10.0
1040
10.0
1070
     0
1002
{
1002
}
1002
}
  0
ENDSEC
  0
EOF
