  0
SECTION
  2
HEADER
  9
$ACADVER
  1
AC1009
  9
$INSBASE
 10
0.0
 20
0.0
 30
0.0
  9
$EXTMIN
 10
-96.854270891230954
 20
-248.35383698320669
 30
0.0
  9
$EXTMAX
 10
134.1538369832096
 20
0.0
 30
0.0
  9
$LIMMIN
 10
0.0
 20
0.0
  9
$LIMMAX
 10
420.0
 20
297.0
  9
$ORTHOMODE
 70
     0
  9
$REGENMODE
 70
     1
  9
$FILLMODE
 70
     1
  9
$QTEXTMODE
 70
     0
  9
$MIRRTEXT
 70
     0
  9
$DRAGMODE
 70
     2
  9
$LTSCALE
 40
1.0
  9
$OSMODE
 70
   127
  9
$ATTMODE
 70
     1
  9
$TEXTSIZE
 40
2.5
  9
$TRACEWID
 40
1.0
  9
$TEXTSTYLE
  7
STANDARD
  9
$CLAYER
  8
0
  9
$CELTYPE
  6
CONTINUOUS
  9
$CECOLOR
 62
   256
  9
$DIMSCALE
 40
1.0
  9
$DIMASZ
 40
2.5
  9
$DIMEXO
 40
0.625
  9
$DIMDLI
 40
3.75
  9
$DIMRND
 40
0.0
  9
$DIMDLE
 40
0.0
  9
$DIMEXE
 40
1.25
  9
$DIMTP
 40
0.0
  9
$DIMTM
 40
0.0
  9
$DIMTXT
 40
2.5
  9
$DIMCEN
 40
2.5
  9
$DIMTSZ
 40
0.0
  9
$DIMTOL
 70
     0
  9
$DIMLIM
 70
     0
  9
$DIMTIH
 70
     0
  9
$DIMTOH
 70
     0
  9
$DIMSE1
 70
     0
  9
$DIMSE2
 70
     0
  9
$DIMTAD
 70
     1
  9
$DIMZIN
 70
     8
  9
$DIMBLK
  1

  9
$DIMASO
 70
     1
  9
$DIMSHO
 70
     1
  9
$DIMPOST
  1

  9
$DIMAPOST
  1

  9
$DIMALT
 70
     0
  9
$DIMALTD
 70
     3
  9
$DIMALTF
 40
0.03937007874016
  9
$DIMLFAC
 40
1.0
  9
$DIMTOFL
 70
     1
  9
$DIMTVP
 40
0.0
  9
$DIMTIX
 70
     0
  9
$DIMSOXD
 70
     0
  9
$DIMSAH
 70
     0
  9
$DIMBLK1
  1

  9
$DIMBLK2
  1

  9
$DIMSTYLE
  2
STANDARD
  9
$DIMCLRD
 70
     0
  9
$DIMCLRE
 70
     0
  9
$DIMCLRT
 70
     0
  9
$DIMTFAC
 40
1.0
  9
$DIMGAP
 40
0.625
  9
$LUNITS
 70
     2
  9
$LUPREC
 70
     4
  9
$SKETCHINC
 40
1.0
  9
$FILLETRAD
 40
3.0
  9
$AUNITS
 70
     0
  9
$AUPREC
 70
     0
  9
$MENU
  1
.
  9
$ELEVATION
 40
0.0
  9
$PELEVATION
 40
0.0
  9
$THICKNESS
 40
0.0
  9
$LIMCHECK
 70
     0
  9
$BLIPMODE
 70
     0
  9
$CHAMFERA
 40
0.0
  9
$CHAMFERB
 40
0.0
  9
$SKPOLY
 70
     0
  9
$TDCREATE
 40
2455559.2317578131
  9
$TDUPDATE
 40
2457377.7313144328
  9
$TDINDWG
 40
2.9209434143999999
  9
$TDUSRTIMER
 40
2.9209394329
  9
$USRTIMER
 70
     1
  9
$ANGBASE
 50
0.0
  9
$ANGDIR
 70
     0
  9
$PDMODE
 70
     0
  9
$PDSIZE
 40
0.0
  9
$PLINEWID
 40
0.0
  9
$COORDS
 70
     2
  9
$SPLFRAME
 70
     0
  9
$SPLINETYPE
 70
     6
  9
$SPLINESEGS
 70
     8
  9
$ATTDIA
 70
     1
  9
$ATTREQ
 70
     1
  9
$HANDLING
 70
     1
  9
$HANDSEED
  5
28C
  9
$SURFTAB1
 70
     6
  9
$SURFTAB2
 70
     6
  9
$SURFTYPE
 70
     6
  9
$SURFU
 70
     6
  9
$SURFV
 70
     6
  9
$UCSNAME
  2

  9
$UCSORG
 10
0.0
 20
0.0
 30
0.0
  9
$UCSXDIR
 10
1.0
 20
0.0
 30
0.0
  9
$UCSYDIR
 10
0.0
 20
1.0
 30
0.0
  9
$PUCSNAME
  2

  9
$PUCSORG
 10
0.0
 20
0.0
 30
0.0
  9
$PUCSXDIR
 10
1.0
 20
0.0
 30
0.0
  9
$PUCSYDIR
 10
0.0
 20
1.0
 30
0.0
  9
$USERI1
 70
     0
  9
$USERI2
 70
     0
  9
$USERI3
 70
     0
  9
$USERI4
 70
     0
  9
$USERI5
 70
     0
  9
$USERR1
 40
0.0
  9
$USERR2
 40
0.0
  9
$USERR3
 40
0.0
  9
$USERR4
 40
0.0
  9
$USERR5
 40
0.0
  9
$WORLDVIEW
 70
     1
  9
$SHADEDGE
 70
     3
  9
$SHADEDIF
 70
    70
  9
$TILEMODE
 70
     1
  9
$MAXACTVP
 70
    64
  9
$PLIMCHECK
 70
     0
  9
$PEXTMIN
 10
25.699999999999989
 20
19.5
 30
0.0
  9
$PEXTMAX
 10
231.30000000000001
 20
175.5
 30
0.0
  9
$PLIMMIN
 10
-20.0
 20
-7.5
  9
$PLIMMAX
 10
277.0
 20
202.5
  9
$UNITMODE
 70
     0
  9
$VISRETAIN
 70
     1
  9
$PLINEGEN
 70
     0
  9
$PSLTSCALE
 70
     1
  0
ENDSEC
  0
SECTION
  2
TABLES
  0
TABLE
  2
VPORT
 70
     1
  0
VPORT
  2
*ACTIVE
 70
     0
 10
0.0
 20
0.0
 11
1.0
 21
1.0
 12
16458.127776663969
 22
5824.9361560382022
 13
0.0
 23
0.0
 14
10.0
 24
10.0
 15
10.0
 25
10.0
 16
-38962.971254248441
 26
-38962.97125424847
 36
38962.97125424847
 17
30714.317967474461
 27
7339.7553224022467
 37
0.0
 40
45085.451174768772
 41
1.56986301369863
 42
50.0
 43
0.0
 44
0.0
 50
0.0
 51
0.0000000000000313
 71
     0
 72
  1000
 73
     1
 74
     3
 75
     0
 76
     0
 77
     0
 78
     0
  0
ENDTAB
  0
TABLE
  2
LTYPE
 70
     4
  0
LTYPE
  2
CONTINUOUS
 70
     0
  3
Solid line
 72
    65
 73
     0
 40
0.0
  0
ENDTAB
  0
TABLE
  2
LAYER
 70
    10
  0
LAYER
  2
0
 70
     0
 62
     7
  6
CONTINUOUS
  0
ENDTAB
  0
TABLE
  2
STYLE
 70
     4
  0
STYLE
  2
STANDARD
 70
     0
 40
0.0
 41
1.0
 50
0.0
 71
     0
 42
2.5
  3
txt
  4

  0
STYLE
  2
INSCRIPTIONS
 70
     0
 40
0.0
 41
0.9
 50
0.0
 71
     0
 42
2.5
  3
txt
  4

  0
ENDTAB
  0
TABLE
  2
VIEW
 70
     1
  0
ENDTAB
  0
TABLE
  2
UCS
 70
     0
  0
ENDTAB
  0
TABLE
  2
APPID
 70
     7
  0
APPID
  2
ACAD
 70
     0
  0
APPID
  2
ACAD_PSEXT
 70
     0
  0
APPID
  2
ACAECLAYERSTANDARD
 70
     0
  0
APPID
  2
ACAD_NAV_VCDISPLAY
 70
     0
  0
APPID
  2
REVIT
 70
     0
  0
APPID
  2
ACAD_EXEMPT_FROM_CAD_STANDARDS
 70
     0
  0
APPID
  2
ACAD_MLEADERVER
 70
     0
  0
ENDTAB
  0
TABLE
  2
DIMSTYLE
 70
     1
  0
DIMSTYLE
  2
STANDARD
 70
     0
  3

  4

  5

  6

  7

 40
1.0
 41
0.18
 42
0.0625
 43
0.38
 44
0.18
 45
0.0
 46
0.0
 47
0.0
 48
0.0
140
0.18
141
0.09
142
0.0
143
25.399999999999999
144
1.0
145
0.0
146
1.0
147
0.09
 71
     0
 72
     0
 73
     1
 74
     1
 75
     0
 76
     0
 77
     0
 78
     0
170
     0
171
     2
172
     0
173
     0
174
     0
175
     0
176
     0
177
     0
178
     0
  0
ENDTAB
  0
ENDSEC
  0
SECTION
  2
BLOCKS
  0
BLOCK
  8
0
  2
$MODEL_SPACE
 70
     0
 10
0.0
 20
0.0
 30
0.0
  3
$MODEL_SPACE
  1

  0
ENDBLK
  5
D
  8
0
  0
BLOCK
 67
     1
  8
0
  2
$PAPER_SPACE
 70
     0
 10
0.0
 20
0.0
 30
0.0
  3
$PAPER_SPACE
  1

  0
ENDBLK
  5
194
 67
     1
  8
0
  0
BLOCK
  8
0
  2
*U2
 70
     1
 10
0.0
 20
0.0
 30
0.0
  3
*U2
  1

  0
TEXT
  5
22A
  8
0
  6
CONTINUOUS
 10
-32.909962230506608
 20
-49.99235925730396
 30
0.0
 40
23.590646657850691
  1
160
 41
0.8
  7
INSCRIPTIONS
  0
ENDBLK
  5
22C
  8
0
  0
BLOCK
  8
0
  2
*U3
 70
     1
 10
0.0
 20
0.0
 30
0.0
  3
*U3
  1

  0
TEXT
  5
23D
  8
0
  6
CONTINUOUS
 10
14.382362220862881
 20
-37.08792955052882
 30
0.0
 40
10.09503
  1
45°
 41
0.7
  7
INSCRIPTIONS
  0
ENDBLK
  5
23F
  8
0
  0
BLOCK
  8
0
  2
*U4
 70
     1
 10
0.0
 20
0.0
 30
0.0
  3
*U4
  1

  0
TEXT
  5
241
  8
0
  6
CONTINUOUS
 10
9.1235815168429326
 20
-50.146775460709748
 30
0.0
 40
10.09503
  1
PP-MD
 41
0.6
  7
INSCRIPTIONS
  0
ENDBLK
  5
243
  8
0
  0
ENDSEC
  0
SECTION
  2
ENTITIES
  0
LINE
  5
4B
  8
0
 10
-80.099999999996726
 20
-75.40976000000046
 30
0.0
 11
-80.099999999997635
 21
-81.06291501015221
 31
0.0
  0
LINE
  5
4E
  8
0
 10
80.100000000003078
 20
-75.409759999999551
 30
0.0
 11
80.100000000003078
 21
-81.021493653914149
 31
0.0
  0
LINE
  5
4F
  8
0
 10
84.978244800005086
 20
-54.199999999998909
 30
0.0
 11
-84.97824479999872
 21
-54.199999999999818
 31
0.0
  0
LINE
  5
50
  8
0
 10
-80.099999999997635
 20
-75.40976000000046
 30
0.0
 11
-41.10218698738845
 21
-75.40976000000046
 31
0.0
  0
LINE
  5
51
  8
0
 10
41.102186987379348
 20
-75.40976000000046
 30
0.0
 11
80.100000000003078
 21
-75.409759999999551
 31
0.0
  0
ARC
  5
52
  8
0
 10
-0.0000000000045475
 20
-43.504486794592587
 30
0.0
 40
57.376088406272153
 50
239.34608426254911
 51
300.65391573745092
  0
ARC
  5
53
  8
0
 10
-0.0000000000045475
 20
-43.504486794592587
 30
0.0
 40
61.618040406272137
 50
239.34608426254911
 51
300.65391573745092
  0
ARC
  5
54
  8
0
 10
21.683590484858541
 20
-80.090816948735664
 30
0.0
 40
14.846831999999999
 50
300.65391573745092
 51
356.42366562502212
  0
ARC
  5
55
  8
0
 10
21.683590484858541
 20
-80.090816948735664
 30
0.0
 40
19.088784
 50
300.65391573745092
 51
356.42366562502212
  0
ARC
  5
56
  8
0
 10
-21.683590484871271
 20
-80.090816948732936
 30
0.0
 40
14.846831999999999
 50
183.57633437497779
 51
239.34608426254911
  0
ARC
  5
57
  8
0
 10
-21.683590484871271
 20
-80.090816948732936
 30
0.0
 40
19.088784
 50
183.57633437497779
 51
239.34608426254911
  0
LINE
  5
58
  8
0
 10
-36.501509444773554
 20
-81.016936883726885
 30
0.0
 11
-38.04208843490597
 21
-56.367673041646412
 31
0.0
  0
LINE
  5
59
  8
0
 10
-40.735200576174968
 20
-81.281542579439702
 30
0.0
 11
-42.292317422286033
 21
-56.367673041646412
 31
0.0
  0
LINE
  5
5A
  8
0
 10
36.501509444761723
 20
-81.016936883728704
 30
0.0
 11
38.042088434892321
 21
-56.367673041646412
 31
0.0
  0
LINE
  5
5B
  8
0
 10
40.735200576163152
 20
-81.281542579441506
 30
0.0
 11
42.292317422278757
 21
-56.367673041646412
 31
0.0
  0
LINE
  5
5C
  8
0
 10
-42.292317422284214
 20
-56.367673041646412
 30
0.0
 11
-38.04208843490597
 21
-56.367673041646412
 31
0.0
  0
LINE
  5
5D
  8
0
 10
38.042088434892321
 20
-56.367673041646412
 30
0.0
 11
42.292317422278757
 21
-56.367673041646412
 31
0.0
  0
LINE
  5
5E
  8
0
 10
36.800176145757177
 20
-76.238269667775057
 30
0.0
 11
19.21276557402507
 21
-76.238269667775057
 31
0.0
  0
LINE
  5
5F
  8
0
 10
36.800176145757177
 20
-74.117293667775812
 30
0.0
 11
19.21276557402507
 21
-74.117293667774902
 31
0.0
  0
LINE
  5
60
  8
0
 10
17.212372885572218
 20
-77.654285892638654
 30
0.0
 11
9.2942300514141607
 21
-100.12279486323401
 31
0.0
  0
LINE
  5
61
  8
0
 10
15.211980197117549
 20
-76.949326117501187
 30
0.0
 11
6.9262191864718261
 21
-100.4609878158571
 31
0.0
  0
ARC
  5
62
  8
0
 10
19.21276557402507
 20
-78.359245667775212
 30
0.0
 40
4.2419520000000004
 50
90.0
 51
160.58699732404349
  0
ARC
  5
63
  8
0
 10
19.21276557402507
 20
-78.359245667775212
 30
0.0
 40
2.1209759999997591
 50
90.0
 51
160.58699732404349
  0
LINE
  5
64
  8
0
 10
25.810858157651641
 20
-80.247996603373394
 30
0.0
 11
22.88736421688645
 21
-88.543698159828637
 31
0.0
  0
LINE
  5
65
  8
0
 10
28.047828110856251
 20
-81.036328736509844
 30
0.0
 11
25.124334170094698
 21
-89.33203029296601
 31
0.0
  0
LINE
  5
66
  8
0
 10
25.810858157651641
 20
-80.247996603373394
 30
0.0
 11
28.047828110856251
 21
-81.036328736509844
 31
0.0
  0
LINE
  5
67
  8
0
 10
22.887364216888269
 20
-88.543698159828637
 30
0.0
 11
25.124334170094698
 21
-89.33203029296601
 31
0.0
  0
LINE
  5
68
  8
0
 10
22.6286956783797
 20
-89.277695575586222
 30
0.0
 11
24.86566563158431
 21
-90.066027708722686
 31
0.0
  0
LINE
  5
69
  8
0
 10
22.628695678381519
 20
-89.277695575586222
 30
0.0
 11
23.171991514639561
 21
-91.304017392596506
 31
0.0
  0
LINE
  5
6A
  8
0
 10
23.171991514639561
 20
-91.304017392596506
 30
0.0
 11
24.86566563158431
 21
-90.066027708722686
 31
0.0
  0
LINE
  5
6B
  8
0
 10
80.100000000001273
 20
-75.409759999999551
 30
0.0
 11
84.978244800005086
 21
-54.199999999998909
 31
0.0
  0
LINE
  5
6C
  8
0
 10
-80.099999999997635
 20
-75.40976000000046
 30
0.0
 11
-84.97824479999872
 21
-54.199999999999818
 31
0.0
  0
INSERT
  5
6D
  8
0
  6
CONTINUOUS
  2
*U2
 10
0.0
 20
0.0
 30
0.0
  0
POLYLINE
  5
70
  8
0
 66
     1
 10
0.0
 20
0.0
 30
0.0
 70
     1
  0
VERTEX
  5
22D
  8
0
 10
-37.250139714545192
 20
-26.879081364388188
 30
0.0
  0
VERTEX
  5
22E
  8
0
 10
-46.170109015948583
 20
-26.879081364388188
 30
0.0
  0
VERTEX
  5
22F
  8
0
 10
-46.170109015948583
 20
-29.81670360592398
 30
0.0
  0
VERTEX
  5
230
  8
0
 10
-37.250139714545192
 20
-29.81670360592398
 30
0.0
  0
SEQEND
  5
231
  8
0
  0
POLYLINE
  5
71
  8
0
 66
     1
 10
0.0
 20
0.0
 30
0.0
 70
     1
  0
VERTEX
  5
232
  8
0
 10
-36.49519317388058
 20
-49.261200893074601
 30
0.0
  0
VERTEX
  5
233
  8
0
 10
-41.802764393712089
 20
-49.261200893073692
 30
0.0
  0
VERTEX
  5
234
  8
0
 10
-41.802764393712089
 20
-47.83891393547492
 30
0.0
  0
VERTEX
  5
235
  8
0
 10
-36.49519317388058
 20
-47.83891393547492
 30
0.0
  0
SEQEND
  5
236
  8
0
  0
LINE
  5
72
  8
0
 10
-36.931297234978963
 20
-39.626590927113291
 30
0.0
 11
-44.065558755434722
 21
-39.626590927113291
 31
0.0
  0
POLYLINE
  5
73
  8
0
 66
     1
 10
0.0
 20
0.0
 30
0.0
 70
     1
  0
VERTEX
  5
237
  8
0
 10
-36.931297234978963
 20
-39.626590927113291
 30
0.0
  0
VERTEX
  5
238
  8
0
 10
-44.604127932057963
 20
-39.626590927113291
 30
0.0
  0
VERTEX
  5
239
  8
0
 10
-44.604127932057963
 20
-37.68053045115812
 30
0.0
  0
VERTEX
  5
23A
  8
0
 10
-36.931297234978963
 20
-37.68053045115812
 30
0.0
  0
SEQEND
  5
23B
  8
0
  0
INSERT
  5
74
  8
0
  6
CONTINUOUS
  2
*U3
 10
0.0
 20
0.0
 30
0.0
  0
INSERT
  5
75
  8
0
  6
CONTINUOUS
  2
*U4
 10
0.0
 20
0.0
 30
0.0
  0
POLYLINE
  5
76
  8
0
 66
     1
 10
0.0
 20
0.0
 30
0.0
 70
     1
  0
VERTEX
  5
244
  8
0
 10
37.250139714548823
 20
-26.879081364388188
 30
0.0
  0
VERTEX
  5
245
  8
0
 10
46.170109015952221
 20
-26.879081364388188
 30
0.0
  0
VERTEX
  5
246
  8
0
 10
46.170109015952221
 20
-29.81670360592398
 30
0.0
  0
VERTEX
  5
247
  8
0
 10
37.250139714548823
 20
-29.81670360592398
 30
0.0
  0
SEQEND
  5
248
  8
0
  0
POLYLINE
  5
77
  8
0
 66
     1
 10
0.0
 20
0.0
 30
0.0
 70
     1
  0
VERTEX
  5
249
  8
0
 10
36.495193173886037
 20
-49.261200893074601
 30
0.0
  0
VERTEX
  5
24A
  8
0
 10
41.802764393717553
 20
-49.261200893073692
 30
0.0
  0
VERTEX
  5
24B
  8
0
 10
41.802764393717553
 20
-47.83891393547492
 30
0.0
  0
VERTEX
  5
24C
  8
0
 10
36.495193173886037
 20
-47.83891393547492
 30
0.0
  0
SEQEND
  5
24D
  8
0
  0
LINE
  5
78
  8
0
 10
36.931297234982587
 20
-39.626590927113291
 30
0.0
 11
44.06555875543836
 21
-39.626590927113291
 31
0.0
  0
POLYLINE
  5
79
  8
0
 66
     1
 10
0.0
 20
0.0
 30
0.0
 70
     1
  0
VERTEX
  5
24E
  8
0
 10
36.931297234982587
 20
-39.626590927113291
 30
0.0
  0
VERTEX
  5
24F
  8
0
 10
44.604127932062511
 20
-39.626590927113291
 30
0.0
  0
VERTEX
  5
250
  8
0
 10
44.604127932062511
 20
-37.68053045115812
 30
0.0
  0
VERTEX
  5
251
  8
0
 10
36.931297234982587
 20
-37.68053045115812
 30
0.0
  0
SEQEND
  5
252
  8
0
  0
LINE
  5
7A
  8
0
 10
0.0
 20
0.0
 30
0.0
 11
0.0000000000009095
 21
-81.06291501015221
 31
0.0
  0
LINE
  5
7D
  8
0
 10
23.43145750507756
 20
-137.6314575050755
 30
0.0
 11
79.195959492894872
 21
-193.3959594928919
 31
0.0
  0
ARC
  5
7E
  8
0
 10
80.000000000000895
 20
-81.062915010151301
 30
0.0
 40
80.0
 50
180.0
 51
225.0
  0
ARC
  5
7F
  8
0
 10
80.000000000000895
 20
-81.062915010151301
 30
0.0
 40
160.1000000000013
 50
180.0
 51
225.0
  0
LINE
  5
80
  8
0
 10
-33.207795667965911
 20
-194.27071067811809
 30
0.0
 11
18.305765805874209
 21
-245.7842721519591
 31
0.0
  0
LINE
  5
81
  8
0
 10
80.100000000003078
 20
-81.021493653914149
 30
0.0
 11
131.58427215196201
 21
-132.5057658058731
 31
0.0
  0
LINE
  5
82
  8
0
 10
134.1538369832096
 20
-138.43808200257709
 30
0.0
 11
24.23808200257827
 21
-248.35383698320669
 31
0.0
  0
LINE
  5
83
  8
0
 10
81.827935175405401
 20
-86.112180194772009
 30
0.0
 11
-28.08781980522599
 21
-196.02793517540161
 31
0.0
  0
LINE
  5
86
  8
0
 10
131.5842721519611
 20
-132.50576580587401
 30
0.0
 11
18.305765805876032
 21
-245.78427215195831
 31
0.0
  0
LINE
  5
87
  8
0
 10
18.305765805876032
 20
-245.78427215195831
 30
0.0
 11
24.23808200257827
 21
-248.35383698320669
 31
0.0
  0
LINE
  5
88
  8
0
 10
131.5842721519611
 20
-132.50576580587401
 30
0.0
 11
134.1538369832096
 21
-138.43808200257709
 31
0.0
  0
LINE
  5
89
  8
0
 10
80.099999999995816
 20
-23.592871598752939
 30
0.0
 11
-80.100000000004016
 21
-23.592871598753849
 31
0.0
  0
LINE
  5
8A
  8
0
 10
-95.583124800001315
 20
-23.592871598752939
 30
0.0
 11
95.583124799994948
 21
-23.592871598753849
 31
0.0
  0
LINE
  5
8B
  8
0
 10
-84.978244800001448
 20
0.0
 30
0.0
 11
-84.978244800001448
 21
-3.1814640000002319
 31
0.0
  0
LINE
  5
8C
  8
0
 10
-84.97824479999781
 20
-18.630130905907212
 30
0.0
 11
-84.978244799999615
 21
-19.350919598752618
 31
0.0
  0
LINE
  5
8D
  8
0
 10
-84.978244800003267
 20
-27.88928294703965
 30
0.0
 11
-84.978244799995082
 21
-49.958047999999508
 31
0.0
  0
LINE
  5
8E
  8
0
 10
84.978244800001448
 20
0.0
 30
0.0
 11
84.978244800001448
 21
-3.1814640000002319
 31
0.0
  0
LINE
  5
8F
  8
0
 10
84.97824479999781
 20
-18.630130905907212
 30
0.0
 11
84.978244799999615
 21
-19.350919598753531
 31
0.0
  0
LINE
  5
90
  8
0
 10
84.978244799999615
 20
-27.889282947047828
 30
0.0
 11
84.978244800005086
 21
-54.199999999998909
 31
0.0
  0
LINE
  5
91
  8
0
 10
-95.583124799999496
 20
-19.350919598752618
 30
0.0
 11
95.583124799998586
 21
-19.350919598753531
 31
0.0
  0
LINE
  5
92
  8
0
 10
-95.583124800001315
 20
-19.350919598753531
 30
0.0
 11
-95.583124800003134
 21
-23.592871598752939
 31
0.0
  0
LINE
  5
93
  8
0
 10
95.583124799998586
 20
-19.350919598753531
 30
0.0
 11
95.583124799996753
 21
-23.592871598752939
 31
0.0
  0
LINE
  5
94
  8
0
 10
-93.199207237797054
 20
-3.1814640000002319
 30
0.0
 11
-0.0000000000081855
 21
-3.1814640000002319
 31
0.0
  0
LINE
  5
95
  8
0
 10
-0.0000000000081855
 20
-18.630130905907212
 30
0.0
 11
-96.854270891230954
 21
-18.630130905907212
 31
0.0
  0
LINE
  5
96
  8
0
 10
-96.854270891230954
 20
-18.630130905907212
 30
0.0
 11
-93.199207237797054
 21
-3.1814640000002319
 31
0.0
  0
LINE
  5
97
  8
0
 10
93.199207237797054
 20
-3.1814640000002319
 30
0.0
 11
-0.0000000000081855
 21
-3.1814640000002319
 31
0.0
  0
LINE
  5
98
  8
0
 10
-0.0000000000081855
 20
-18.630130905907212
 30
0.0
 11
96.854270891232787
 21
-18.630130905907212
 31
0.0
  0
LINE
  5
99
  8
0
 10
96.854270891232787
 20
-18.630130905907212
 30
0.0
 11
93.199207237797054
 21
-3.1814640000002319
 31
0.0
  0
LINE
  5
9A
  8
0
 10
-84.97824479999781
 20
0.0
 30
0.0
 11
-84.978244800001448
 21
-3.1814640000011418
 31
0.0
  0
LINE
  5
9B
  8
0
 10
-84.978244799999615
 20
-27.88928294703965
 30
0.0
 11
-84.978244799999615
 21
-54.199999999999818
 31
0.0
  0
LINE
  5
9C
  8
0
 10
-84.978244799999615
 20
0.0
 30
0.0
 11
84.978244799999615
 21
0.0
 31
0.0
  0
ARC
  5
9D
  8
0
 10
89.274656148295435
 20
-27.889282947047828
 30
0.0
 40
4.296411348295015
 50
90.0
 51
180.0
  0
ARC
  5
9E
  8
0
 10
-89.274656148299073
 20
-27.88928294703965
 30
0.0
 40
4.296411348295015
 50
0.0
 51
90.0
  0
LINE
  5
9F
  8
0
 10
-2.1209760000047022
 20
-3.1814640000002319
 30
0.0
 11
-2.1209760000065212
 21
-18.630130905907212
 31
0.0
  0
LINE
  5
A1
  8
0
 10
2.1209759999919688
 20
-3.1814640000002319
 30
0.0
 11
2.1209759999919688
 21
-18.630130905907212
 31
0.0
  0
LINE
  5
A2
  8
0
 10
-24.521145808220361
 20
-3.1814640000002319
 30
0.0
 11
-25.45171200000641
 21
-18.630130905907212
 31
0.0
  0
LINE
  5
A3
  8
0
 10
24.521145808203979
 20
-3.1814640000002319
 30
0.0
 11
25.451711999990039
 21
-18.630130905907212
 31
0.0
  0
LINE
  5
A4
  8
0
 10
-68.252894812715567
 20
-3.1814639999993228
 30
0.0
 11
-70.131412799997634
 21
-18.630130905907212
 31
0.0
  0
LINE
  5
A5
  8
0
 10
-71.699343193180539
 20
-3.1814639999993228
 30
0.0
 11
-73.577861180461696
 21
-18.630130905907212
 31
0.0
  0
LINE
  5
A6
  8
0
 10
68.252894812715567
 20
-3.1814639999993228
 30
0.0
 11
70.131412799998543
 21
-18.630130905907212
 31
0.0
  0
LINE
  5
A7
  8
0
 10
71.699343193179629
 20
-3.1814639999993228
 30
0.0
 11
73.577861180462605
 21
-18.630130905907212
 31
0.0
  0
VIEWPORT
  5
198
 67
     1
  8
0
  6
CONTINUOUS
 10
128.5
 20
97.5
 30
0.0
 40
348.79216438356173
 41
222.18000000000001
 68
     1
 69
     1
1001
ACAD
1000
MVIEW
1002
{
1070
    16
1010
0.0
1020
0.0
1030
0.0
1010
0.0
1020
0.0
1030
1.0
1040
0.0
1040
222.18000000000001
1040
128.5
1040
97.5
1040
50.0
1040
0.0
1040
0.0
1070
     0
1070
  1000
1070
     1
1070
     1
1070
     0
1070
     0
1070
     0
1070
     0
1040
0.0
1040
0.0
1040
0.0
1040
10.0
1040
10.0
1040
10.0
1040
10.0
1070
     0
1002
{
1002
}
1002
}
  0
VIEWPORT
  5
19C
 67
     1
  8
0
  6
CONTINUOUS
 10
128.5
 20
97.5
 30
0.0
 40
205.59999999999999
 41
156.0
 68
     2
 69
     2
1001
ACAD
1000
MVIEW
1002
{
1070
    16
1010
30714.317967474461
1020
7339.7553224022467
1030
0.0
1010
-38962.971254248441
1020
-38962.97125424847
1030
38962.97125424847
1040
0.0000000000000005
1040
259.47372283893958
1040
-16427.318024408589
1040
-15578.591638421951
1040
50.0
1040
0.0
1040
0.0
1070
     0
1070
  1000
1070
     1
1070
     3
1070
     0
1070
     0
1070
     0
1070
     0
1040
0.0
1040
0.0
1040
0.0
1040
10.0
1040
10.0
1040
10.0
1040
10.0
1070
     0
1002
{
1002
}
1002
}
  0
ENDSEC
  0
EOF
