  0
SECTION
  2
HEADER
  9
$ACADVER
  1
AC1009
  9
$INSBASE
 10
0.0
 20
0.0
 30
0.0
  9
$EXTMIN
 10
-66.475022670396356
 20
-167.8312718038496
 30
0.0
  9
$EXTMAX
 10
85.329709039851863
 20
0.0
 30
0.0
  9
$LIMMIN
 10
0.0
 20
0.0
  9
$LIMMAX
 10
420.0
 20
297.0
  9
$ORTHOMODE
 70
     0
  9
$REGENMODE
 70
     1
  9
$FILLMODE
 70
     1
  9
$QTEXTMODE
 70
     0
  9
$MIRRTEXT
 70
     0
  9
$DRAGMODE
 70
     2
  9
$LTSCALE
 40
1.0
  9
$OSMODE
 70
   127
  9
$ATTMODE
 70
     1
  9
$TEXTSIZE
 40
2.5
  9
$TRACEWID
 40
1.0
  9
$TEXTSTYLE
  7
STANDARD
  9
$CLAYER
  8
0
  9
$CELTYPE
  6
CONTINUOUS
  9
$CECOLOR
 62
   256
  9
$DIMSCALE
 40
1.0
  9
$DIMASZ
 40
2.5
  9
$DIMEXO
 40
0.625
  9
$DIMDLI
 40
3.75
  9
$DIMRND
 40
0.0
  9
$DIMDLE
 40
0.0
  9
$DIMEXE
 40
1.25
  9
$DIMTP
 40
0.0
  9
$DIMTM
 40
0.0
  9
$DIMTXT
 40
2.5
  9
$DIMCEN
 40
2.5
  9
$DIMTSZ
 40
0.0
  9
$DIMTOL
 70
     0
  9
$DIMLIM
 70
     0
  9
$DIMTIH
 70
     0
  9
$DIMTOH
 70
     0
  9
$DIMSE1
 70
     0
  9
$DIMSE2
 70
     0
  9
$DIMTAD
 70
     1
  9
$DIMZIN
 70
     8
  9
$DIMBLK
  1

  9
$DIMASO
 70
     1
  9
$DIMSHO
 70
     1
  9
$DIMPOST
  1

  9
$DIMAPOST
  1

  9
$DIMALT
 70
     0
  9
$DIMALTD
 70
     3
  9
$DIMALTF
 40
0.03937007874016
  9
$DIMLFAC
 40
1.0
  9
$DIMTOFL
 70
     1
  9
$DIMTVP
 40
0.0
  9
$DIMTIX
 70
     0
  9
$DIMSOXD
 70
     0
  9
$DIMSAH
 70
     0
  9
$DIMBLK1
  1

  9
$DIMBLK2
  1

  9
$DIMSTYLE
  2
STANDARD
  9
$DIMCLRD
 70
     0
  9
$DIMCLRE
 70
     0
  9
$DIMCLRT
 70
     0
  9
$DIMTFAC
 40
1.0
  9
$DIMGAP
 40
0.625
  9
$LUNITS
 70
     2
  9
$LUPREC
 70
     4
  9
$SKETCHINC
 40
1.0
  9
$FILLETRAD
 40
3.0
  9
$AUNITS
 70
     0
  9
$AUPREC
 70
     0
  9
$MENU
  1
.
  9
$ELEVATION
 40
0.0
  9
$PELEVATION
 40
0.0
  9
$THICKNESS
 40
0.0
  9
$LIMCHECK
 70
     0
  9
$BLIPMODE
 70
     0
  9
$CHAMFERA
 40
0.0
  9
$CHAMFERB
 40
0.0
  9
$SKPOLY
 70
     0
  9
$TDCREATE
 40
2455559.2317578131
  9
$TDUPDATE
 40
2457377.7321644099
  9
$TDINDWG
 40
2.9209393171000002
  9
$TDUSRTIMER
 40
2.9209353355999998
  9
$USRTIMER
 70
     1
  9
$ANGBASE
 50
0.0
  9
$ANGDIR
 70
     0
  9
$PDMODE
 70
     0
  9
$PDSIZE
 40
0.0
  9
$PLINEWID
 40
0.0
  9
$COORDS
 70
     2
  9
$SPLFRAME
 70
     0
  9
$SPLINETYPE
 70
     6
  9
$SPLINESEGS
 70
     8
  9
$ATTDIA
 70
     1
  9
$ATTREQ
 70
     1
  9
$HANDLING
 70
     1
  9
$HANDSEED
  5
28B
  9
$SURFTAB1
 70
     6
  9
$SURFTAB2
 70
     6
  9
$SURFTYPE
 70
     6
  9
$SURFU
 70
     6
  9
$SURFV
 70
     6
  9
$UCSNAME
  2

  9
$UCSORG
 10
0.0
 20
0.0
 30
0.0
  9
$UCSXDIR
 10
1.0
 20
0.0
 30
0.0
  9
$UCSYDIR
 10
0.0
 20
1.0
 30
0.0
  9
$PUCSNAME
  2

  9
$PUCSORG
 10
0.0
 20
0.0
 30
0.0
  9
$PUCSXDIR
 10
1.0
 20
0.0
 30
0.0
  9
$PUCSYDIR
 10
0.0
 20
1.0
 30
0.0
  9
$USERI1
 70
     0
  9
$USERI2
 70
     0
  9
$USERI3
 70
     0
  9
$USERI4
 70
     0
  9
$USERI5
 70
     0
  9
$USERR1
 40
0.0
  9
$USERR2
 40
0.0
  9
$USERR3
 40
0.0
  9
$USERR4
 40
0.0
  9
$USERR5
 40
0.0
  9
$WORLDVIEW
 70
     1
  9
$SHADEDGE
 70
     3
  9
$SHADEDIF
 70
    70
  9
$TILEMODE
 70
     1
  9
$MAXACTVP
 70
    64
  9
$PLIMCHECK
 70
     0
  9
$PEXTMIN
 10
25.699999999999989
 20
19.5
 30
0.0
  9
$PEXTMAX
 10
231.30000000000001
 20
175.5
 30
0.0
  9
$PLIMMIN
 10
-20.0
 20
-7.5
  9
$PLIMMAX
 10
277.0
 20
202.5
  9
$UNITMODE
 70
     0
  9
$VISRETAIN
 70
     1
  9
$PLINEGEN
 70
     0
  9
$PSLTSCALE
 70
     1
  0
ENDSEC
  0
SECTION
  2
TABLES
  0
TABLE
  2
VPORT
 70
     1
  0
VPORT
  2
*ACTIVE
 70
     0
 10
0.0
 20
0.0
 11
1.0
 21
1.0
 12
16458.127776663969
 22
5824.9361560382022
 13
0.0
 23
0.0
 14
10.0
 24
10.0
 15
10.0
 25
10.0
 16
-38962.971254248441
 26
-38962.97125424847
 36
38962.97125424847
 17
30714.317967474461
 27
7339.7553224022467
 37
0.0
 40
45085.451174768772
 41
1.56986301369863
 42
50.0
 43
0.0
 44
0.0
 50
0.0
 51
0.0000000000000313
 71
     0
 72
  1000
 73
     1
 74
     3
 75
     0
 76
     0
 77
     0
 78
     0
  0
ENDTAB
  0
TABLE
  2
LTYPE
 70
     4
  0
LTYPE
  2
CONTINUOUS
 70
     0
  3
Solid line
 72
    65
 73
     0
 40
0.0
  0
ENDTAB
  0
TABLE
  2
LAYER
 70
    10
  0
LAYER
  2
0
 70
     0
 62
     7
  6
CONTINUOUS
  0
ENDTAB
  0
TABLE
  2
STYLE
 70
     4
  0
STYLE
  2
STANDARD
 70
     0
 40
0.0
 41
1.0
 50
0.0
 71
     0
 42
2.5
  3
txt
  4

  0
STYLE
  2
INSCRIPTIONS
 70
     0
 40
0.0
 41
0.9
 50
0.0
 71
     0
 42
2.5
  3
txt
  4

  0
ENDTAB
  0
TABLE
  2
VIEW
 70
     1
  0
ENDTAB
  0
TABLE
  2
UCS
 70
     0
  0
ENDTAB
  0
TABLE
  2
APPID
 70
     7
  0
APPID
  2
ACAD
 70
     0
  0
APPID
  2
ACAD_PSEXT
 70
     0
  0
APPID
  2
ACAECLAYERSTANDARD
 70
     0
  0
APPID
  2
ACAD_NAV_VCDISPLAY
 70
     0
  0
APPID
  2
REVIT
 70
     0
  0
APPID
  2
ACAD_EXEMPT_FROM_CAD_STANDARDS
 70
     0
  0
APPID
  2
ACAD_MLEADERVER
 70
     0
  0
ENDTAB
  0
TABLE
  2
DIMSTYLE
 70
     1
  0
DIMSTYLE
  2
STANDARD
 70
     0
  3

  4

  5

  6

  7

 40
1.0
 41
0.18
 42
0.0625
 43
0.38
 44
0.18
 45
0.0
 46
0.0
 47
0.0
 48
0.0
140
0.18
141
0.09
142
0.0
143
25.399999999999999
144
1.0
145
0.0
146
1.0
147
0.09
 71
     0
 72
     0
 73
     1
 74
     1
 75
     0
 76
     0
 77
     0
 78
     0
170
     0
171
     2
172
     0
173
     0
174
     0
175
     0
176
     0
177
     0
178
     0
  0
ENDTAB
  0
ENDSEC
  0
SECTION
  2
BLOCKS
  0
BLOCK
  8
0
  2
$MODEL_SPACE
 70
     0
 10
0.0
 20
0.0
 30
0.0
  3
$MODEL_SPACE
  1

  0
ENDBLK
  5
D
  8
0
  0
BLOCK
 67
     1
  8
0
  2
$PAPER_SPACE
 70
     0
 10
0.0
 20
0.0
 30
0.0
  3
$PAPER_SPACE
  1

  0
ENDBLK
  5
193
 67
     1
  8
0
  0
BLOCK
  8
0
  2
*U2
 70
     1
 10
0.0
 20
0.0
 30
0.0
  3
*U2
  1

  0
TEXT
  5
229
  8
0
  6
CONTINUOUS
 10
-28.274320855829501
 20
-41.698152097969711
 30
0.0
 40
20.020769999999992
  1
110
 41
0.8
  7
INSCRIPTIONS
  0
ENDBLK
  5
22B
  8
0
  0
BLOCK
  8
0
  2
*U3
 70
     1
 10
0.0
 20
0.0
 30
0.0
  3
*U3
  1

  0
TEXT
  5
23C
  8
0
  6
CONTINUOUS
 10
11.21091224451447
 20
-30.113546490464248
 30
0.0
 40
8.0999999999999996
  1
30°
 41
0.7
  7
INSCRIPTIONS
  0
ENDBLK
  5
23E
  8
0
  0
BLOCK
  8
0
  2
*U4
 70
     1
 10
0.0
 20
0.0
 30
0.0
  3
*U4
  1

  0
TEXT
  5
240
  8
0
  6
CONTINUOUS
 10
6.991397918900474
 20
-41.091624396106091
 30
0.0
 40
8.0999999999999996
  1
PP-MD
 41
0.6
  7
INSCRIPTIONS
  0
ENDBLK
  5
242
  8
0
  0
ENDSEC
  0
SECTION
  2
ENTITIES
  0
LINE
  5
4B
  8
0
 10
58.41200000000299
 20
-46.5
 30
0.0
 11
-58.412000000000262
 21
-46.5
 31
0.0
  0
LINE
  5
4E
  8
0
 10
-55.099999999999447
 20
-58.075999497045807
 30
0.0
 11
-28.082119548976149
 21
-58.075999497045359
 31
0.0
  0
LINE
  5
4F
  8
0
 10
28.082119548973431
 20
-58.075999497045359
 30
0.0
 11
55.100000000000371
 21
-58.075999497045359
 31
0.0
  0
ARC
  5
50
  8
0
 10
-0.0000000000009095
 20
-39.23846615153343
 30
0.0
 40
38.954503636548402
 50
239.34608426254911
 51
300.65391573745092
  0
ARC
  5
51
  8
0
 10
-0.0000000000009095
 20
-39.23846615153343
 30
0.0
 40
41.834503636548398
 50
239.34608426254911
 51
300.65391573745092
  0
ARC
  5
52
  8
0
 10
14.721699018848989
 20
-64.07812271623061
 30
0.0
 40
10.08
 50
300.65391573745092
 51
356.42366562502212
  0
ARC
  5
53
  8
0
 10
14.721699018848989
 20
-64.07812271623061
 30
0.0
 40
12.960000000000001
 50
300.65391573745092
 51
356.42366562502212
  0
ARC
  5
54
  8
0
 10
-14.721699018852631
 20
-64.078122716228791
 30
0.0
 40
10.08
 50
183.57633437497779
 51
239.34608426254911
  0
ARC
  5
55
  8
0
 10
-14.721699018852631
 20
-64.078122716228791
 30
0.0
 40
12.960000000000001
 50
183.57633437497779
 51
239.34608426254911
  0
LINE
  5
56
  8
0
 10
-24.782069009959741
 20
-64.706895840673042
 30
0.0
 11
-25.828018490666182
 21
-47.971704149396821
 31
0.0
  0
LINE
  5
57
  8
0
 10
-27.6564604359919
 20
-64.886545304800165
 30
0.0
 11
-28.713638008203819
 21
-47.971704149396821
 31
0.0
  0
LINE
  5
58
  8
0
 10
24.782069009956111
 20
-64.706895840674406
 30
0.0
 11
25.828018490661631
 21
-47.971704149396821
 31
0.0
  0
LINE
  5
59
  8
0
 10
27.656460435987359
 20
-64.88654530480153
 30
0.0
 11
28.713638008202
 21
-47.971704149396821
 31
0.0
  0
LINE
  5
5A
  8
0
 10
-28.713638008202899
 20
-47.971704149396821
 30
0.0
 11
-25.828018490666182
 21
-47.971704149396821
 31
0.0
  0
LINE
  5
5B
  8
0
 10
25.828018490661631
 20
-47.971704149396821
 30
0.0
 11
28.713638008202
 21
-47.971704149396821
 31
0.0
  0
LINE
  5
5C
  8
0
 10
24.984843604970589
 20
-61.46250232043986
 30
0.0
 11
13.044175147007991
 21
-61.46250232043986
 31
0.0
  0
LINE
  5
5D
  8
0
 10
24.984843604970589
 20
-60.022502320439798
 30
0.0
 11
13.044175147007991
 21
-60.022502320439337
 31
0.0
  0
LINE
  5
5E
  8
0
 10
11.686043102434271
 20
-62.42388206438909
 30
0.0
 11
6.310156868366902
 21
-77.678487923983084
 31
0.0
  0
LINE
  5
5F
  8
0
 10
10.327911057859639
 20
-61.945261808338721
 30
0.0
 11
4.7024368161291932
 21
-77.908098184436767
 31
0.0
  0
ARC
  5
60
  8
0
 10
13.044175147007991
 20
-62.902502320439453
 30
0.0
 40
2.879999999999999
 50
90.0
 51
160.58699732404349
  0
ARC
  5
61
  8
0
 10
13.044175147007991
 20
-62.902502320439453
 30
0.0
 40
1.4399999999998361
 50
90.0
 51
160.58699732404349
  0
LINE
  5
62
  8
0
 10
17.523836076892621
 20
-64.184837126332241
 30
0.0
 11
15.538980390310821
 21
-69.817060329844935
 31
0.0
  0
LINE
  5
63
  8
0
 10
19.042588166787031
 20
-64.720061603985414
 30
0.0
 11
17.05773248020796
 21
-70.352284807499473
 31
0.0
  0
LINE
  5
64
  8
0
 10
17.523836076892621
 20
-64.184837126332241
 30
0.0
 11
19.042588166787031
 21
-64.720061603985414
 31
0.0
  0
LINE
  5
65
  8
0
 10
15.53898039031264
 20
-69.817060329844935
 30
0.0
 11
17.05773248020796
 21
-70.352284807499473
 31
0.0
  0
LINE
  5
66
  8
0
 10
15.363361856461781
 20
-70.315395190160416
 30
0.0
 11
16.882113946356181
 21
-70.850619667813589
 31
0.0
  0
LINE
  5
67
  8
0
 10
15.3633618564636
 20
-70.315395190160416
 30
0.0
 11
15.73222317512591
 21
-71.69113136845499
 31
0.0
  0
LINE
  5
68
  8
0
 10
15.73222317512591
 20
-71.69113136845499
 30
0.0
 11
16.882113946356181
 21
-70.850619667813589
 31
0.0
  0
LINE
  5
69
  8
0
 10
55.100000000000371
 20
-58.075999497044897
 30
0.0
 11
58.41200000000299
 21
-46.5
 31
0.0
  0
LINE
  5
6A
  8
0
 10
-55.099999999999447
 20
-58.075999497045807
 30
0.0
 11
-58.412000000000262
 21
-46.5
 31
0.0
  0
LINE
  5
6B
  8
0
 10
-55.099999999999447
 20
-58.075999497045807
 30
0.0
 11
-55.099999999998552
 21
-59.442540378443482
 31
0.0
  0
INSERT
  5
6C
  8
0
  6
CONTINUOUS
  2
*U2
 10
0.0
 20
0.0
 30
0.0
  0
POLYLINE
  5
6F
  8
0
 66
     1
 10
0.0
 20
0.0
 30
0.0
 70
     1
  0
VERTEX
  5
22C
  8
0
 10
-30.831397987059969
 20
-23.177347044454109
 30
0.0
  0
VERTEX
  5
22D
  8
0
 10
-37.988558623666911
 20
-23.177347044454109
 30
0.0
  0
VERTEX
  5
22E
  8
0
 10
-37.988558623666911
 20
-25.53442177889702
 30
0.0
  0
VERTEX
  5
22F
  8
0
 10
-30.831397987059969
 20
-25.53442177889702
 30
0.0
  0
SEQEND
  5
230
  8
0
  0
POLYLINE
  5
70
  8
0
 66
     1
 10
0.0
 20
0.0
 30
0.0
 70
     1
  0
VERTEX
  5
231
  8
0
 10
-30.225647733779631
 20
-41.136200874740553
 30
0.0
  0
VERTEX
  5
232
  8
0
 10
-34.484310350991109
 20
-41.136200874740553
 30
0.0
  0
VERTEX
  5
233
  8
0
 10
-34.484310350991109
 20
-39.994993334340961
 30
0.0
  0
VERTEX
  5
234
  8
0
 10
-30.225647733778711
 20
-39.994993334340961
 30
0.0
  0
SEQEND
  5
235
  8
0
  0
LINE
  5
71
  8
0
 10
-30.575566742923911
 20
-33.405630413406932
 30
0.0
 11
-36.299920045063118
 21
-33.405630413406932
 31
0.0
  0
POLYLINE
  5
72
  8
0
 66
     1
 10
0.0
 20
0.0
 30
0.0
 70
     1
  0
VERTEX
  5
236
  8
0
 10
-30.575566742923911
 20
-33.405630413406932
 30
0.0
  0
VERTEX
  5
237
  8
0
 10
-36.732054504361258
 20
-33.405630413406932
 30
0.0
  0
VERTEX
  5
238
  8
0
 10
-36.732054504362168
 20
-31.844160080456732
 30
0.0
  0
VERTEX
  5
239
  8
0
 10
-30.575566742923911
 20
-31.844160080456732
 30
0.0
  0
SEQEND
  5
23A
  8
0
  0
INSERT
  5
73
  8
0
  6
CONTINUOUS
  2
*U3
 10
0.0
 20
0.0
 30
0.0
  0
INSERT
  5
74
  8
0
  6
CONTINUOUS
  2
*U4
 10
0.0
 20
0.0
 30
0.0
  0
POLYLINE
  5
75
  8
0
 66
     1
 10
0.0
 20
0.0
 30
0.0
 70
     1
  0
VERTEX
  5
243
  8
0
 10
30.831397987059969
 20
-23.177347044453651
 30
0.0
  0
VERTEX
  5
244
  8
0
 10
37.988558623666911
 20
-23.177347044453199
 30
0.0
  0
VERTEX
  5
245
  8
0
 10
37.988558623666911
 20
-25.534421778896562
 30
0.0
  0
VERTEX
  5
246
  8
0
 10
30.831397987059969
 20
-25.534421778896562
 30
0.0
  0
SEQEND
  5
247
  8
0
  0
POLYLINE
  5
76
  8
0
 66
     1
 10
0.0
 20
0.0
 30
0.0
 70
     1
  0
VERTEX
  5
248
  8
0
 10
30.225647733779631
 20
-41.136200874740098
 30
0.0
  0
VERTEX
  5
249
  8
0
 10
34.484310350992018
 20
-41.136200874739643
 30
0.0
  0
VERTEX
  5
24A
  8
0
 10
34.484310350992018
 20
-39.994993334340514
 30
0.0
  0
VERTEX
  5
24B
  8
0
 10
30.225647733779631
 20
-39.994993334340514
 30
0.0
  0
SEQEND
  5
24C
  8
0
  0
LINE
  5
77
  8
0
 10
30.575566742924821
 20
-33.40563041340647
 30
0.0
 11
36.299920045064027
 21
-33.405630413406023
 31
0.0
  0
POLYLINE
  5
78
  8
0
 66
     1
 10
0.0
 20
0.0
 30
0.0
 70
     1
  0
VERTEX
  5
24D
  8
0
 10
30.575566742924821
 20
-33.40563041340647
 30
0.0
  0
VERTEX
  5
24E
  8
0
 10
36.732054504362168
 20
-33.405630413406023
 30
0.0
  0
VERTEX
  5
24F
  8
0
 10
36.732054504362168
 20
-31.84416008045628
 30
0.0
  0
VERTEX
  5
250
  8
0
 10
30.575566742924821
 20
-31.84416008045628
 30
0.0
  0
SEQEND
  5
251
  8
0
  0
LINE
  5
79
  8
0
 10
0.000000000003638
 20
0.0
 30
0.0
 11
0.0
 21
-59.442540378443482
 31
0.0
  0
LINE
  5
7C
  8
0
 10
6.6987298107787856
 20
-84.442540378443482
 30
0.0
 11
39.600000000001273
 21
-141.42921197972731
 31
0.0
  0
ARC
  5
7D
  8
0
 10
50.0
 20
-59.442540378443482
 30
0.0
 40
50.0
 50
180.0
 51
210.00000000001029
  0
ARC
  5
7E
  8
0
 10
50.0
 20
-59.442540378443482
 30
0.0
 40
105.09999999999989
 50
180.0
 51
210.00000000001029
  0
LINE
  5
7F
  8
0
 10
-41.01926993774395
 20
-111.9925403784445
 30
0.0
 11
-11.83462152557604
 21
-162.541834229351
 31
0.0
  0
LINE
  5
80
  8
0
 10
55.100000000000371
 20
-58.075999497044897
 30
0.0
 11
83.601377971468537
 21
-107.44183422935021
 31
0.0
  0
LINE
  5
81
  8
0
 10
85.329709039851863
 20
-115.02715215560551
 30
0.0
 11
-6.129709039849331
 21
-167.8312718038496
 31
0.0
  0
LINE
  5
82
  8
0
 10
83.601377971468537
 20
-107.44183422934969
 30
0.0
 11
-11.834621525576949
 21
-162.54183422935151
 31
0.0
  0
LINE
  5
83
  8
0
 10
-11.834621525576949
 20
-162.54183422935151
 30
0.0
 11
-6.129709039849331
 21
-167.8312718038496
 31
0.0
  0
LINE
  5
84
  8
0
 10
83.601377971468537
 20
-107.44183422934969
 30
0.0
 11
85.329709039851863
 21
-115.02715215560551
 31
0.0
  0
LINE
  5
85
  8
0
 10
55.829709039851878
 20
-63.931653332323997
 30
0.0
 11
-35.62970903985115
 21
-116.735772980568
 31
0.0
  0
LINE
  5
88
  8
0
 10
55.100000000000371
 20
-17.9647538431127
 30
0.0
 11
-55.099999999999447
 21
-17.964753843113609
 31
0.0
  0
LINE
  5
89
  8
0
 10
-65.611999999998261
 20
-17.9647538431127
 30
0.0
 11
65.611999999999171
 21
-17.964753843113609
 31
0.0
  0
LINE
  5
8A
  8
0
 10
-58.411999999998443
 20
0.0
 30
0.0
 11
-58.411999999998443
 21
-2.159999999999854
 31
0.0
  0
LINE
  5
8B
  8
0
 10
-58.411999999995707
 20
-14.595386816942661
 30
0.0
 11
-58.411999999996631
 21
-15.08475384311259
 31
0.0
  0
LINE
  5
8C
  8
0
 10
-58.411999999999352
 20
-20.881728076453332
 30
0.0
 11
-58.411999999996631
 21
-46.499999999999083
 31
0.0
  0
LINE
  5
8D
  8
0
 10
58.4120000000039
 20
0.0
 30
0.0
 11
58.4120000000039
 21
-2.159999999999854
 31
0.0
  0
LINE
  5
8E
  8
0
 10
58.412000000001171
 20
-14.595386816942661
 30
0.0
 11
58.41200000000299
 21
-15.08475384311259
 31
0.0
  0
LINE
  5
8F
  8
0
 10
58.41200000000299
 20
-20.881728076458788
 30
0.0
 11
58.41200000000299
 21
-46.5
 31
0.0
  0
LINE
  5
90
  8
0
 10
-65.611999999997352
 20
-15.08475384311259
 30
0.0
 11
65.612000000000975
 21
-15.08475384311259
 31
0.0
  0
LINE
  5
91
  8
0
 10
-65.611999999998261
 20
-15.08475384311259
 30
0.0
 11
-65.611999999999171
 21
-17.9647538431127
 31
0.0
  0
LINE
  5
92
  8
0
 10
65.612000000000975
 20
-15.08475384311259
 30
0.0
 11
65.61200000000008
 21
-17.9647538431127
 31
0.0
  0
LINE
  5
93
  8
0
 10
-63.993480370556419
 20
-2.159999999999854
 30
0.0
 11
0.0
 21
-2.159999999999854
 31
0.0
  0
LINE
  5
94
  8
0
 10
0.0
 20
-14.595386816942661
 30
0.0
 11
-66.475022670396356
 21
-14.595386816942661
 31
0.0
  0
LINE
  5
95
  8
0
 10
-66.475022670396356
 20
-14.595386816942661
 30
0.0
 11
-63.993480370556419
 21
-2.159999999999854
 31
0.0
  0
LINE
  5
96
  8
0
 10
63.99348037056189
 20
-2.159999999999854
 30
0.0
 11
0.0
 21
-2.159999999999854
 31
0.0
  0
LINE
  5
97
  8
0
 10
0.0
 20
-14.595386816942661
 30
0.0
 11
66.475022670402723
 21
-14.595386816942661
 31
0.0
  0
LINE
  5
98
  8
0
 10
66.475022670402723
 20
-14.595386816942661
 30
0.0
 11
63.99348037056189
 21
-2.159999999999854
 31
0.0
  0
LINE
  5
99
  8
0
 10
-58.411999999995707
 20
0.0
 30
0.0
 11
-58.411999999998443
 21
-2.159999999999854
 31
0.0
  0
LINE
  5
9A
  8
0
 10
-58.411999999996631
 20
-20.881728076453332
 30
0.0
 11
-58.411999999996631
 21
-46.499999999999083
 31
0.0
  0
LINE
  5
9B
  8
0
 10
-58.411999999996631
 20
0.0
 30
0.0
 11
58.41200000000299
 21
0.0
 31
0.0
  0
ARC
  5
9C
  8
0
 10
61.328974233349072
 20
-20.881728076458788
 30
0.0
 40
2.91697423334579
 50
90.0
 51
180.0
  0
ARC
  5
9D
  8
0
 10
-61.328974233345441
 20
-20.881728076453332
 30
0.0
 40
2.91697423334579
 50
0.0
 51
90.0
  0
LINE
  5
9E
  8
0
 10
-1.4399999999968709
 20
-2.159999999999854
 30
0.0
 11
-1.4399999999986901
 21
-14.595386816942661
 31
0.0
  0
LINE
  5
A0
  8
0
 10
1.4400000000005091
 20
-2.159999999999854
 30
0.0
 11
1.4400000000005091
 21
-14.595386816942661
 31
0.0
  0
LINE
  5
A1
  8
0
 10
-16.64820816634619
 20
-2.159999999999854
 30
0.0
 11
-17.279999999998829
 21
-14.595386816942661
 31
0.0
  0
LINE
  5
A2
  8
0
 10
16.64820816634619
 20
-2.159999999999854
 30
0.0
 11
17.279999999998829
 21
-14.595386816942661
 31
0.0
  0
LINE
  5
A3
  8
0
 10
-47.05661267751475
 20
-2.159999999999854
 30
0.0
 11
-48.33199999999578
 21
-14.595386816942661
 31
0.0
  0
LINE
  5
A4
  8
0
 10
-49.396519243109651
 20
-2.159999999999854
 30
0.0
 11
-50.671906565590689
 21
-14.595386816942661
 31
0.0
  0
LINE
  5
A5
  8
0
 10
47.056612677520199
 20
-2.159999999999854
 30
0.0
 11
48.332000000001237
 21
-14.595386816942661
 31
0.0
  0
LINE
  5
A6
  8
0
 10
49.396519243115108
 20
-2.159999999999854
 30
0.0
 11
50.671906565596139
 21
-14.595386816942661
 31
0.0
  0
VIEWPORT
  5
197
 67
     1
  8
0
  6
CONTINUOUS
 10
128.5
 20
97.5
 30
0.0
 40
348.79216438356173
 41
222.18000000000001
 68
     1
 69
     1
1001
ACAD
1000
MVIEW
1002
{
1070
    16
1010
0.0
1020
0.0
1030
0.0
1010
0.0
1020
0.0
1030
1.0
1040
0.0
1040
222.18000000000001
1040
128.5
1040
97.5
1040
50.0
1040
0.0
1040
0.0
1070
     0
1070
  1000
1070
     1
1070
     1
1070
     0
1070
     0
1070
     0
1070
     0
1040
0.0
1040
0.0
1040
0.0
1040
10.0
1040
10.0
1040
10.0
1040
10.0
1070
     0
1002
{
1002
}
1002
}
  0
VIEWPORT
  5
19B
 67
     1
  8
0
  6
CONTINUOUS
 10
128.5
 20
97.5
 30
0.0
 40
205.59999999999999
 41
156.0
 68
     2
 69
     2
1001
ACAD
1000
MVIEW
1002
{
1070
    16
1010
30714.317967474461
1020
7339.7553224022467
1030
0.0
1010
-38962.971254248441
1020
-38962.97125424847
1030
38962.97125424847
1040
0.0000000000000005
1040
173.01570280008821
1040
-16462.308300111999
1040
-15565.920083940089
1040
50.0
1040
0.0
1040
0.0
1070
     0
1070
  1000
1070
     1
1070
     3
1070
     0
1070
     0
1070
     0
1070
     0
1040
0.0
1040
0.0
1040
0.0
1040
10.0
1040
10.0
1040
10.0
1040
10.0
1070
     0
1002
{
1002
}
1002
}
  0
ENDSEC
  0
EOF
