  0
SECTION
  2
HEADER
  9
$ACADVER
  1
AC1018
  9
$ACADMAINTVER
 70
     0
  9
$DWGCODEPAGE
  3
ANSI_1252
  9
$INSBASE
 10
0.0
 20
0.0
 30
0.0
  9
$EXTMIN
 10
1.000000000000000E+20
 20
1.000000000000000E+20
 30
1.000000000000000E+20
  9
$EXTMAX
 10
-1.000000000000000E+20
 20
-1.000000000000000E+20
 30
-1.000000000000000E+20
  9
$LIMMIN
 10
0.0
 20
0.0
  9
$LIMMAX
 10
12.0
 20
9.0
  9
$ORTHOMODE
 70
     0
  9
$REGENMODE
 70
     1
  9
$FILLMODE
 70
     1
  9
$QTEXTMODE
 70
     0
  9
$MIRRTEXT
 70
     1
  9
$LTSCALE
 40
1.0
  9
$ATTMODE
 70
     1
  9
$TEXTSIZE
 40
0.2
  9
$TRACEWID
 40
0.05
  9
$TEXTSTYLE
  7
Standard
  9
$CLAYER
  8
0
  9
$CELTYPE
  6
ByLayer
  9
$CECOLOR
 62
   256
  9
$CELTSCALE
 40
1.0
  9
$DISPSILH
 70
     0
  9
$DIMSCALE
 40
1.0
  9
$DIMASZ
 40
0.18
  9
$DIMEXO
 40
0.0625
  9
$DIMDLI
 40
0.38
  9
$DIMRND
 40
0.0
  9
$DIMDLE
 40
0.0
  9
$DIMEXE
 40
0.18
  9
$DIMTP
 40
0.0
  9
$DIMTM
 40
0.0
  9
$DIMTXT
 40
0.18
  9
$DIMCEN
 40
0.09
  9
$DIMTSZ
 40
0.0
  9
$DIMTOL
 70
     0
  9
$DIMLIM
 70
     0
  9
$DIMTIH
 70
     1
  9
$DIMTOH
 70
     1
  9
$DIMSE1
 70
     0
  9
$DIMSE2
 70
     0
  9
$DIMTAD
 70
     0
  9
$DIMZIN
 70
     0
  9
$DIMBLK
  1

  9
$DIMASO
 70
     1
  9
$DIMSHO
 70
     1
  9
$DIMPOST
  1

  9
$DIMAPOST
  1

  9
$DIMALT
 70
     0
  9
$DIMALTD
 70
     2
  9
$DIMALTF
 40
25.4
  9
$DIMLFAC
 40
1.0
  9
$DIMTOFL
 70
     0
  9
$DIMTVP
 40
0.0
  9
$DIMTIX
 70
     0
  9
$DIMSOXD
 70
     0
  9
$DIMSAH
 70
     0
  9
$DIMBLK1
  1

  9
$DIMBLK2
  1

  9
$DIMSTYLE
  2
Standard
  9
$DIMCLRD
 70
     0
  9
$DIMCLRE
 70
     0
  9
$DIMCLRT
 70
     0
  9
$DIMTFAC
 40
1.0
  9
$DIMGAP
 40
0.09
  9
$DIMJUST
 70
     0
  9
$DIMSD1
 70
     0
  9
$DIMSD2
 70
     0
  9
$DIMTOLJ
 70
     1
  9
$DIMTZIN
 70
     0
  9
$DIMALTZ
 70
     0
  9
$DIMALTTZ
 70
     0
  9
$DIMUPT
 70
     0
  9
$DIMDEC
 70
     4
  9
$DIMTDEC
 70
     4
  9
$DIMALTU
 70
     2
  9
$DIMALTTD
 70
     2
  9
$DIMTXSTY
  7
Standard
  9
$DIMAUNIT
 70
     0
  9
$DIMADEC
 70
     0
  9
$DIMALTRND
 40
0.0
  9
$DIMAZIN
 70
     0
  9
$DIMDSEP
 70
    46
  9
$DIMATFIT
 70
     3
  9
$DIMFRAC
 70
     0
  9
$DIMLDRBLK
  1

  9
$DIMLUNIT
 70
     2
  9
$DIMLWD
 70
    -2
  9
$DIMLWE
 70
    -2
  9
$DIMTMOVE
 70
     0
  9
$LUNITS
 70
     2
  9
$LUPREC
 70
     4
  9
$SKETCHINC
 40
0.1
  9
$FILLETRAD
 40
0.5
  9
$AUNITS
 70
     0
  9
$AUPREC
 70
     0
  9
$MENU
  1
.
  9
$ELEVATION
 40
0.0
  9
$PELEVATION
 40
0.0
  9
$THICKNESS
 40
0.0
  9
$LIMCHECK
 70
     0
  9
$CHAMFERA
 40
0.5
  9
$CHAMFERB
 40
0.5
  9
$CHAMFERC
 40
1.0
  9
$CHAMFERD
 40
0.0
  9
$SKPOLY
 70
     0
  9
$TDCREATE
 40
2456576.585311493
  9
$TDUCREATE
 40
2456576.043644826
  9
$TDUPDATE
 40
2456576.585311505
  9
$TDUUPDATE
 40
2456576.043644838
  9
$TDINDWG
 40
0.0000000116
  9
$TDUSRTIMER
 40
0.0000000116
  9
$USRTIMER
 70
     1
  9
$ANGBASE
 50
0.0
  9
$ANGDIR
 70
     0
  9
$PDMODE
 70
     0
  9
$PDSIZE
 40
0.0
  9
$PLINEWID
 40
0.0
  9
$SPLFRAME
 70
     0
  9
$SPLINETYPE
 70
     6
  9
$SPLINESEGS
 70
     8
  9
$HANDSEED
  5
3FD
  9
$SURFTAB1
 70
     6
  9
$SURFTAB2
 70
     6
  9
$SURFTYPE
 70
     6
  9
$SURFU
 70
     6
  9
$SURFV
 70
     6
  9
$UCSBASE
  2

  9
$UCSNAME
  2

  9
$UCSORG
 10
0.0
 20
0.0
 30
0.0
  9
$UCSXDIR
 10
1.0
 20
0.0
 30
0.0
  9
$UCSYDIR
 10
0.0
 20
1.0
 30
0.0
  9
$UCSORTHOREF
  2

  9
$UCSORTHOVIEW
 70
     0
  9
$UCSORGTOP
 10
0.0
 20
0.0
 30
0.0
  9
$UCSORGBOTTOM
 10
0.0
 20
0.0
 30
0.0
  9
$UCSORGLEFT
 10
0.0
 20
0.0
 30
0.0
  9
$UCSORGRIGHT
 10
0.0
 20
0.0
 30
0.0
  9
$UCSORGFRONT
 10
0.0
 20
0.0
 30
0.0
  9
$UCSORGBACK
 10
0.0
 20
0.0
 30
0.0
  9
$PUCSBASE
  2

  9
$PUCSNAME
  2

  9
$PUCSORG
 10
0.0
 20
0.0
 30
0.0
  9
$PUCSXDIR
 10
1.0
 20
0.0
 30
0.0
  9
$PUCSYDIR
 10
0.0
 20
1.0
 30
0.0
  9
$PUCSORTHOREF
  2

  9
$PUCSORTHOVIEW
 70
     0
  9
$PUCSORGTOP
 10
0.0
 20
0.0
 30
0.0
  9
$PUCSORGBOTTOM
 10
0.0
 20
0.0
 30
0.0
  9
$PUCSORGLEFT
 10
0.0
 20
0.0
 30
0.0
  9
$PUCSORGRIGHT
 10
0.0
 20
0.0
 30
0.0
  9
$PUCSORGFRONT
 10
0.0
 20
0.0
 30
0.0
  9
$PUCSORGBACK
 10
0.0
 20
0.0
 30
0.0
  9
$USERI1
 70
     0
  9
$USERI2
 70
     0
  9
$USERI3
 70
     0
  9
$USERI4
 70
     0
  9
$USERI5
 70
     0
  9
$USERR1
 40
0.0
  9
$USERR2
 40
0.0
  9
$USERR3
 40
0.0
  9
$USERR4
 40
0.0
  9
$USERR5
 40
0.0
  9
$WORLDVIEW
 70
     1
  9
$SHADEDGE
 70
     3
  9
$SHADEDIF
 70
    70
  9
$TILEMODE
 70
     1
  9
$MAXACTVP
 70
    64
  9
$PINSBASE
 10
0.0
 20
0.0
 30
0.0
  9
$PLIMCHECK
 70
     0
  9
$PEXTMIN
 10
1.000000000000000E+20
 20
1.000000000000000E+20
 30
1.000000000000000E+20
  9
$PEXTMAX
 10
-1.000000000000000E+20
 20
-1.000000000000000E+20
 30
-1.000000000000000E+20
  9
$PLIMMIN
 10
0.0
 20
0.0
  9
$PLIMMAX
 10
12.0
 20
9.0
  9
$UNITMODE
 70
     0
  9
$VISRETAIN
 70
     1
  9
$PLINEGEN
 70
     0
  9
$PSLTSCALE
 70
     1
  9
$TREEDEPTH
 70
  3020
  9
$CMLSTYLE
  2
Standard
  9
$CMLJUST
 70
     0
  9
$CMLSCALE
 40
1.0
  9
$PROXYGRAPHICS
 70
     1
  9
$MEASUREMENT
 70
     0
  9
$CELWEIGHT
370
    -1
  9
$ENDCAPS
280
     0
  9
$JOINSTYLE
280
     0
  9
$LWDISPLAY
290
     1
  9
$INSUNITS
 70
     1
  9
$HYPERLINKBASE
  1

  9
$STYLESHEET
  1

  9
$XEDIT
290
     1
  9
$CEPSNTYPE
380
     0
  9
$PSTYLEMODE
290
     1
  9
$FINGERPRINTGUID
  2
{4DEAC728-4221-4CAA-915D-8D37482EB7F2}
  9
$VERSIONGUID
  2
{FAEB1C32-E019-11D5-929B-00C0DF256EC4}
  9
$EXTNAMES
290
     1
  9
$PSVPSCALE
 40
0.0
  9
$OLESTARTUP
290
     0
  9
$SORTENTS
280
   127
  9
$INDEXCTL
280
     0
  9
$HIDETEXT
280
     1
  9
$XCLIPFRAME
290
     0
  9
$HALOGAP
280
     0
  9
$OBSCOLOR
 70
   257
  9
$OBSLTYPE
280
     0
  9
$INTERSECTIONDISPLAY
280
     0
  9
$INTERSECTIONCOLOR
 70
   257
  9
$DIMASSOC
280
     2
  9
$PROJECTNAME
  1

  0
ENDSEC
  0
SECTION
  2
CLASSES
  0
CLASS
  1
ACDBDICTIONARYWDFLT
  2
AcDbDictionaryWithDefault
  3
ObjectDBX Classes
 90
        0
 91
        3
280
     0
281
     0
  0
CLASS
  1
VISUALSTYLE
  2
AcDbVisualStyle
  3
ObjectDBX Classes
 90
     4095
 91
        3
280
     0
281
     0
  0
CLASS
  1
IMAGEDEF
  2
AcDbRasterImageDef
  3
ISM
 90
        0
 91
        3
280
     0
281
     0
  0
CLASS
  1
RASTERVARIABLES
  2
AcDbRasterVariables
  3
ISM
 90
        0
 91
        3
280
     0
281
     0
  0
CLASS
  1
IMAGE
  2
AcDbRasterImage
  3
ISM
 90
      127
 91
        4
280
     0
281
     1
  0
CLASS
  1
IMAGEDEF_REACTOR
  2
AcDbRasterImageDefReactor
  3
ISM
 90
        1
 91
        3
280
     0
281
     0
  0
ENDSEC
  0
SECTION
  2
TABLES
  0
TABLE
  2
VPORT
  5
8
330
0
100
AcDbSymbolTable
 70
     1
  0
VPORT
  5
29
330
8
100
AcDbSymbolTableRecord
100
AcDbViewportTableRecord
  2
*Active
 70
     0
 10
0.0
 20
0.0
 11
1.0
 21
1.0
 12
0.0
 22
0.0
 13
0.0
 23
0.0
 14
0.5
 24
0.5
 15
0.5
 25
0.5
 16
0.0
 26
0.0
 36
1.0
 17
105.00020623182
 27
148.5001637099431
 37
0.0
 40
297.0003274198861
 41
0.7070713163448828
 42
50.0
 43
0.0
 44
0.0
 50
0.0
 51
0.0
 71
     0
 72
   100
 73
     1
 74
     3
 75
     0
 76
     0
 77
     0
 78
     0
281
     0
 65
     1
110
0.0
120
0.0
130
0.0
111
1.0
121
0.0
131
0.0
112
0.0
122
1.0
132
0.0
 79
     0
146
0.0
  0
ENDTAB
  0
TABLE
  2
LTYPE
  5
5
330
0
100
AcDbSymbolTable
 70
     4
  0
LTYPE
  5
14
330
5
100
AcDbSymbolTableRecord
100
AcDbLinetypeTableRecord
  2
ByBlock
 70
     0
  3

 72
    65
 73
     0
 40
0.0
  0
LTYPE
  5
15
330
5
100
AcDbSymbolTableRecord
100
AcDbLinetypeTableRecord
  2
ByLayer
 70
     0
  3

 72
    65
 73
     0
 40
0.0
  0
LTYPE
  5
16
330
5
100
AcDbSymbolTableRecord
100
AcDbLinetypeTableRecord
  2
Continuous
 70
     0
  3
Solid line
 72
    65
 73
     0
 40
0.0
  0
LTYPE
  5
3B7
330
5
100
AcDbSymbolTableRecord
100
AcDbLinetypeTableRecord
  2
AI-Linetype-1
 70
     0
  3
Adobe Illustrator Linetype No. 1
 72
    65
 73
     4
 40
9.575806333552654
 49
1.59596777833133
 74
     0
 49
-1.59596777833133
 74
     0
 49
4.787902998558663
 74
     0
 49
-1.59596777833133
 74
     0
  0
LTYPE
  5
3D8
330
5
100
AcDbSymbolTableRecord
100
AcDbLinetypeTableRecord
  2
AI-Linetype-2
 70
     0
  3
Adobe Illustrator Linetype No. 2
 72
    65
 73
     4
 40
9.575806333552654
 49
1.59596777833133
 74
     0
 49
-1.59596777833133
 74
     0
 49
4.787902998558663
 74
     0
 49
-1.59596777833133
 74
     0
  0
LTYPE
  5
3DD
330
5
100
AcDbSymbolTableRecord
100
AcDbLinetypeTableRecord
  2
AI-Linetype-3
 70
     0
  3
Adobe Illustrator Linetype No. 3
 72
    65
 73
     4
 40
9.575806333552654
 49
1.59596777833133
 74
     0
 49
-1.59596777833133
 74
     0
 49
4.787902998558663
 74
     0
 49
-1.59596777833133
 74
     0
  0
ENDTAB
  0
TABLE
  2
LAYER
  5
2
330
0
100
AcDbSymbolTable
 70
     2
  0
LAYER
  5
10
330
2
100
AcDbSymbolTableRecord
100
AcDbLayerTableRecord
  2
0
 70
     0
 62
     7
  6
Continuous
370
    -3
390
F
  0
LAYER
  5
3B
330
2
100
AcDbSymbolTableRecord
100
AcDbLayerTableRecord
  2
Layer 1
 70
     0
 62
     7
  6
Continuous
370
    -3
390
F
  0
ENDTAB
  0
TABLE
  2
STYLE
  5
3
330
0
100
AcDbSymbolTable
 70
     1
  0
STYLE
  5
11
330
3
100
AcDbSymbolTableRecord
100
AcDbTextStyleTableRecord
  2
Standard
 70
     0
 40
0.0
 41
1.0
 50
0.0
 71
     0
 42
0.2
  3
txt
  4

  0
ENDTAB
  0
TABLE
  2
VIEW
  5
6
330
0
100
AcDbSymbolTable
 70
     0
  0
ENDTAB
  0
TABLE
  2
UCS
  5
7
330
0
100
AcDbSymbolTable
 70
     0
  0
ENDTAB
  0
TABLE
  2
APPID
  5
9
330
0
100
AcDbSymbolTable
 70
     1
  0
APPID
  5
12
330
9
100
AcDbSymbolTableRecord
100
AcDbRegAppTableRecord
  2
ACAD
 70
     0
  0
ENDTAB
  0
TABLE
  2
DIMSTYLE
  5
A
330
0
100
AcDbSymbolTable
 70
     1
100
AcDbDimStyleTable
  0
DIMSTYLE
105
27
330
A
100
AcDbSymbolTableRecord
100
AcDbDimStyleTableRecord
  2
Standard
 70
     0
340
11
  0
ENDTAB
  0
TABLE
  2
BLOCK_RECORD
  5
1
330
0
100
AcDbSymbolTable
 70
     6
  0
BLOCK_RECORD
  5
1F
330
1
100
AcDbSymbolTableRecord
100
AcDbBlockTableRecord
  2
*Model_Space
340
22
  0
BLOCK_RECORD
  5
1B
330
1
100
AcDbSymbolTableRecord
100
AcDbBlockTableRecord
  2
*Paper_Space
340
1E
  0
BLOCK_RECORD
  5
23
330
1
100
AcDbSymbolTableRecord
100
AcDbBlockTableRecord
  2
*Paper_Space0
340
26
  0
BLOCK_RECORD
  5
3C
330
1
100
AcDbSymbolTableRecord
100
AcDbBlockTableRecord
  2
block 2
340
0
102
{BLKREFS
331
3D
102
}
  0
BLOCK_RECORD
  5
A8
330
1
100
AcDbSymbolTableRecord
100
AcDbBlockTableRecord
  2
block 3
340
0
102
{BLKREFS
331
A9
102
}
  0
BLOCK_RECORD
  5
AD
330
1
100
AcDbSymbolTableRecord
100
AcDbBlockTableRecord
  2
block 4
340
0
102
{BLKREFS
331
AE
102
}
  0
BLOCK_RECORD
  5
B1
330
1
100
AcDbSymbolTableRecord
100
AcDbBlockTableRecord
  2
block 5
340
0
102
{BLKREFS
331
B2
102
}
  0
BLOCK_RECORD
  5
B5
330
1
100
AcDbSymbolTableRecord
100
AcDbBlockTableRecord
  2
block 6
340
0
102
{BLKREFS
331
B6
102
}
  0
ENDTAB
  0
ENDSEC
  0
SECTION
  2
BLOCKS
  0
BLOCK
  5
20
330
1F
100
AcDbEntity
  8
0
100
AcDbBlockBegin
  2
*Model_Space
 70
     0
 71
     0
 10
0.0
 20
0.0
 30
0.0
  3
*Model_Space
  1

  0
ENDBLK
  5
21
330
1F
100
AcDbEntity
  8
0
100
AcDbBlockEnd
  0
BLOCK
  5
1C
330
1B
100
AcDbEntity
 67
     1
  8
0
100
AcDbBlockBegin
  2
*Paper_Space
 70
     0
 71
     0
 10
0.0
 20
0.0
 30
0.0
  3
*Paper_Space
  1

  0
ENDBLK
  5
1D
330
1B
100
AcDbEntity
 67
     1
  8
0
100
AcDbBlockEnd
  0
BLOCK
  5
24
330
23
100
AcDbEntity
  8
0
100
AcDbBlockBegin
  2
*Paper_Space0
 70
     0
 71
     0
 10
0.0
 20
0.0
 30
0.0
  3
*Paper_Space0
  1

  0
ENDBLK
  5
25
330
23
100
AcDbEntity
  8
0
100
AcDbBlockEnd
  0
BLOCK
  5
3E
330
3C
100
AcDbEntity
  8
0
100
AcDbBlockBegin
  2
block 2
 70
     0
 71
     0
 10
0.0
 20
0.0
 30
0.0
  3
block 2
  1

  0
IMAGE
  5
43
330
3C
100
AcDbEntity
  8
Layer 1
 92
        8
310
0800000000000000
100
AcDbRasterImage
 90
        0
 10
11.56967163085938
 20
27.87821960449219
 30
0.0
 11
0.2650368375132283
 21
0.0
 31
0.0
 12
0.0
 22
0.2706950187683105
 32
0.0
 13
251.0
 23
40.0
340
41
 70
     3
280
     0
281
    50
282
    50
283
     0
360
44
 71
     1
 91
        2
 14
-0.5
 24
-0.5
 14
250.5
 24
39.5
  0
POLYLINE
  5
45
330
3C
100
AcDbEntity
  8
Layer 1
370
     0
100
AcDb2dPolyline
 66
     1
 10
0.0
 20
0.0
 30
0.0
  0
VERTEX
  5
46
330
45
100
AcDbEntity
  8
Layer 1
370
     0
100
AcDbVertex
100
AcDb2dVertex
 10
11.56967180056274
 20
27.87807556720178
 30
0.0
  0
VERTEX
  5
47
330
45
100
AcDbEntity
  8
Layer 1
370
     0
100
AcDbVertex
100
AcDb2dVertex
 10
78.09382048725135
 20
27.87807556720178
 30
0.0
  0
VERTEX
  5
48
330
45
100
AcDbEntity
  8
Layer 1
370
     0
100
AcDbVertex
100
AcDb2dVertex
 10
78.09382048725135
 20
38.70601782047537
 30
0.0
  0
VERTEX
  5
49
330
45
100
AcDbEntity
  8
Layer 1
370
     0
100
AcDbVertex
100
AcDb2dVertex
 10
11.56967180056274
 20
38.70601782047537
 30
0.0
  0
VERTEX
  5
4A
330
45
100
AcDbEntity
  8
Layer 1
370
     0
100
AcDbVertex
100
AcDb2dVertex
 10
11.56967180056274
 20
27.87807556720178
 30
0.0
  0
SEQEND
  5
4B
330
45
100
AcDbEntity
  8
Layer 1
370
     0
  0
ENDBLK
  5
3F
330
3C
100
AcDbEntity
  8
0
100
AcDbBlockEnd
  0
BLOCK
  5
AA
330
A8
100
AcDbEntity
  8
0
100
AcDbBlockBegin
  2
block 3
 70
     0
 71
     0
 10
0.0
 20
0.0
 30
0.0
  3
block 3
  1

  0
MTEXT
  5
AC
330
A8
100
AcDbEntity
  8
Layer 1
 62
     7
420
 16777215
100
AcDbMText
 10
120.7072681848069
 20
24.86843816584645
 30
0.0
 40
4.653106244767444
 41
0.0
 71
     7
 72
     1
  1
\fArial,Bold|b0|i0|c0|p34;\W0.979537;80mm 65mm Gully
 73
     1
 44
1.0
  0
ENDBLK
  5
AB
330
A8
100
AcDbEntity
  8
0
100
AcDbBlockEnd
  0
BLOCK
  5
AF
330
AD
100
AcDbEntity
  8
0
100
AcDbBlockBegin
  2
block 4
 70
     0
 71
     0
 10
0.0
 20
0.0
 30
0.0
  3
block 4
  1

  0
INSERT
  5
B2
330
AD
100
AcDbEntity
  8
Layer 1
100
AcDbBlockReference
  2
block 5
 10
0.0
 20
0.0
 30
0.0
  0
POLYLINE
  5
3F5
330
AD
100
AcDbEntity
  8
Layer 1
370
     0
100
AcDb2dPolyline
 66
     1
 10
0.0
 20
0.0
 30
0.0
  0
VERTEX
  5
3F6
330
3F5
100
AcDbEntity
  8
Layer 1
370
     0
100
AcDbVertex
100
AcDb2dVertex
 10
201.0834659367078
 20
84.66672249966646
 30
0.0
  0
VERTEX
  5
3F7
330
3F5
100
AcDbEntity
  8
Layer 1
370
     0
100
AcDbVertex
100
AcDb2dVertex
 10
14.37983804173209
 20
84.66672249966646
 30
0.0
  0
VERTEX
  5
3F8
330
3F5
100
AcDbEntity
  8
Layer 1
370
     0
100
AcDbVertex
100
AcDb2dVertex
 10
14.37983804173209
 20
261.0557277073049
 30
0.0
  0
VERTEX
  5
3F9
330
3F5
100
AcDbEntity
  8
Layer 1
370
     0
100
AcDbVertex
100
AcDb2dVertex
 10
201.0834659367078
 20
261.0557277073049
 30
0.0
  0
VERTEX
  5
3FA
330
3F5
100
AcDbEntity
  8
Layer 1
370
     0
100
AcDbVertex
100
AcDb2dVertex
 10
201.0834659367078
 20
84.66672249966646
 30
0.0
  0
SEQEND
  5
3FB
330
3F5
100
AcDbEntity
  8
Layer 1
370
     0
  0
ENDBLK
  5
B0
330
AD
100
AcDbEntity
  8
0
100
AcDbBlockEnd
  0
BLOCK
  5
B3
330
B1
100
AcDbEntity
  8
0
100
AcDbBlockBegin
  2
block 5
 70
     0
 71
     0
 10
0.0
 20
0.0
 30
0.0
  3
block 5
  1

  0
INSERT
  5
B6
330
B1
100
AcDbEntity
  8
Layer 1
100
AcDbBlockReference
  2
block 6
 10
0.0
 20
0.0
 30
0.0
  0
ENDBLK
  5
B4
330
B1
100
AcDbEntity
  8
0
100
AcDbBlockEnd
  0
BLOCK
  5
B7
330
B5
100
AcDbEntity
  8
0
100
AcDbBlockBegin
  2
block 6
 70
     0
 71
     0
 10
0.0
 20
0.0
 30
0.0
  3
block 6
  1

  0
MTEXT
  5
B9
330
B5
100
AcDbEntity
  8
Layer 1
 62
     7
420
 16777215
100
AcDbMText
 10
123.6573053949495
 20
96.66324191244065
 30
0.0
 40
1.654761224542527
 41
0.0
 71
     7
 72
     1
  1
\fHelvetica|b0|i0|c0|p34;\W1;193
 73
     1
 44
1.0
  0
POLYLINE
  5
BA
330
B5
100
AcDbEntity
  8
Layer 1
370
     0
100
AcDb2dPolyline
 66
     1
 10
0.0
 20
0.0
 30
0.0
  0
VERTEX
  5
BB
330
BA
100
AcDbEntity
  8
Layer 1
370
     0
100
AcDbVertex
100
AcDb2dVertex
 10
65.12905634960202
 20
97.59927497327884
 30
0.0
  0
VERTEX
  5
BC
330
BA
100
AcDbEntity
  8
Layer 1
370
     0
100
AcDbVertex
100
AcDb2dVertex
 10
67.0009502163905
 20
98.06746375858583
 30
0.0
  0
VERTEX
  5
BD
330
BA
100
AcDbEntity
  8
Layer 1
370
     0
100
AcDbVertex
100
AcDb2dVertex
 10
67.0009502163905
 20
97.13143069774765
 30
0.0
  0
VERTEX
  5
BE
330
BA
100
AcDbEntity
  8
Layer 1
370
     0
100
AcDbVertex
100
AcDb2dVertex
 10
65.12905634960202
 20
97.59927497327884
 30
0.0
  0
SEQEND
  5
BF
330
BA
100
AcDbEntity
  8
Layer 1
370
     0
  0
HATCH
  5
C0
330
B5
100
AcDbEntity
  8
Layer 1
 62
     7
420
 16777215
100
AcDbHatch
 10
0.0
 20
0.0
 30
0.0
210
0.0
220
0.0
230
1.0
  2
SOLID
 70
     1
 71
     0
 91
        1
 92
        1
 93
        3
 72
     1
 10
65.12905634960202
 20
97.59927497327884
 11
67.0009502163905
 21
98.06746375858583
 72
     1
 10
67.0009502163905
 20
98.06746375858583
 11
67.0009502163905
 21
97.13143069774765
 72
     1
 10
67.0009502163905
 20
97.13143069774765
 11
65.12905634960202
 21
97.59927497327884
 97
        0
 75
     2
 76
     1
 98
        0
  0
POLYLINE
  5
C1
330
B5
100
AcDbEntity
  8
Layer 1
370
     0
100
AcDb2dPolyline
 66
     1
 10
0.0
 20
0.0
 30
0.0
  0
VERTEX
  5
C2
330
C1
100
AcDbEntity
  8
Layer 1
370
     0
100
AcDbVertex
100
AcDb2dVertex
 10
185.5550323024713
 20
97.59927497327884
 30
0.0
  0
VERTEX
  5
C3
330
C1
100
AcDbEntity
  8
Layer 1
370
     0
100
AcDbVertex
100
AcDb2dVertex
 10
183.6829661807949
 20
97.13143069774765
 30
0.0
  0
VERTEX
  5
C4
330
C1
100
AcDbEntity
  8
Layer 1
370
     0
100
AcDbVertex
100
AcDb2dVertex
 10
183.6829661807949
 20
98.06746375858583
 30
0.0
  0
VERTEX
  5
C5
330
C1
100
AcDbEntity
  8
Layer 1
370
     0
100
AcDbVertex
100
AcDb2dVertex
 10
185.5550323024713
 20
97.59927497327884
 30
0.0
  0
SEQEND
  5
C6
330
C1
100
AcDbEntity
  8
Layer 1
370
     0
  0
HATCH
  5
C7
330
B5
100
AcDbEntity
  8
Layer 1
 62
     7
420
 16777215
100
AcDbHatch
 10
0.0
 20
0.0
 30
0.0
210
0.0
220
0.0
230
1.0
  2
SOLID
 70
     1
 71
     0
 91
        1
 92
        1
 93
        3
 72
     1
 10
185.5550323024713
 20
97.59927497327884
 11
183.6829661807949
 21
97.13143069774765
 72
     1
 10
183.6829661807949
 20
97.13143069774765
 11
183.6829661807949
 21
98.06746375858583
 72
     1
 10
183.6829661807949
 20
98.06746375858583
 11
185.5550323024713
 21
97.59927497327884
 97
        0
 75
     2
 76
     1
 98
        0
  0
MTEXT
  5
C8
330
B5
100
AcDbEntity
  8
Layer 1
 62
     7
420
 16777215
100
AcDbMText
 10
106.2723085789474
 20
91.67129526115416
 30
0.0
 40
1.654761224542527
 41
0.0
 71
     7
 72
     1
  1
\fHelvetica|b0|i0|c0|p34;\W1;249
 73
     1
 44
1.0
  0
POLYLINE
  5
C9
330
B5
100
AcDbEntity
  8
Layer 1
370
     0
100
AcDb2dPolyline
 66
     1
 10
0.0
 20
0.0
 30
0.0
  0
VERTEX
  5
CA
330
C9
100
AcDbEntity
  8
Layer 1
370
     0
100
AcDbVertex
100
AcDb2dVertex
 10
185.5550323024713
 20
92.60767283176814
 30
0.0
  0
VERTEX
  5
CB
330
C9
100
AcDbEntity
  8
Layer 1
370
     0
100
AcDbVertex
100
AcDb2dVertex
 10
183.6829661807949
 20
92.13982855623695
 30
0.0
  0
VERTEX
  5
CC
330
C9
100
AcDbEntity
  8
Layer 1
370
     0
100
AcDbVertex
100
AcDb2dVertex
 10
183.6829661807949
 20
93.07586161707515
 30
0.0
  0
VERTEX
  5
CD
330
C9
100
AcDbEntity
  8
Layer 1
370
     0
100
AcDbVertex
100
AcDb2dVertex
 10
185.5550323024713
 20
92.60767283176814
 30
0.0
  0
SEQEND
  5
CE
330
C9
100
AcDbEntity
  8
Layer 1
370
     0
  0
HATCH
  5
CF
330
B5
100
AcDbEntity
  8
Layer 1
 62
     7
420
 16777215
100
AcDbHatch
 10
0.0
 20
0.0
 30
0.0
210
0.0
220
0.0
230
1.0
  2
SOLID
 70
     1
 71
     0
 91
        1
 92
        1
 93
        3
 72
     1
 10
185.5550323024713
 20
92.60767283176814
 11
183.6829661807949
 21
92.13982855623695
 72
     1
 10
183.6829661807949
 20
92.13982855623695
 11
183.6829661807949
 21
93.07586161707515
 72
     1
 10
183.6829661807949
 20
93.07586161707515
 11
185.5550323024713
 21
92.60767283176814
 97
        0
 75
     2
 76
     1
 98
        0
  0
POLYLINE
  5
D0
330
B5
100
AcDbEntity
  8
Layer 1
370
     0
100
AcDb2dPolyline
 66
     1
 10
0.0
 20
0.0
 30
0.0
  0
VERTEX
  5
D1
330
D0
100
AcDbEntity
  8
Layer 1
370
     0
100
AcDbVertex
100
AcDb2dVertex
 10
30.35906271759789
 20
92.60767283176814
 30
0.0
  0
VERTEX
  5
D2
330
D0
100
AcDbEntity
  8
Layer 1
370
     0
100
AcDbVertex
100
AcDb2dVertex
 10
32.23095658438637
 20
93.07586161707515
 30
0.0
  0
VERTEX
  5
D3
330
D0
100
AcDbEntity
  8
Layer 1
370
     0
100
AcDbVertex
100
AcDb2dVertex
 10
32.23095658438637
 20
92.13982855623695
 30
0.0
  0
VERTEX
  5
D4
330
D0
100
AcDbEntity
  8
Layer 1
370
     0
100
AcDbVertex
100
AcDb2dVertex
 10
30.35906271759789
 20
92.60767283176814
 30
0.0
  0
SEQEND
  5
D5
330
D0
100
AcDbEntity
  8
Layer 1
370
     0
  0
HATCH
  5
D6
330
B5
100
AcDbEntity
  8
Layer 1
 62
     7
420
 16777215
100
AcDbHatch
 10
0.0
 20
0.0
 30
0.0
210
0.0
220
0.0
230
1.0
  2
SOLID
 70
     1
 71
     0
 91
        1
 92
        1
 93
        3
 72
     1
 10
30.35906271759789
 20
92.60767283176814
 11
32.23095658438637
 21
93.07586161707515
 72
     1
 10
32.23095658438637
 20
93.07586161707515
 11
32.23095658438637
 21
92.13982855623695
 72
     1
 10
32.23095658438637
 20
92.13982855623695
 11
30.35906271759789
 21
92.60767283176814
 97
        0
 75
     2
 76
     1
 98
        0
  0
MTEXT
  5
D7
330
B5
100
AcDbEntity
  8
Layer 1
 62
     7
420
 16777215
100
AcDbMText
 10
195.1013981897832
 20
150.168366171792
 30
0.0
 40
1.654761224542527
 41
0.0
 71
     7
 72
     1
  1
\fHelvetica|b0|i0|c0|p34;\W1;151
 73
     1
 44
1.0
  0
POLYLINE
  5
D8
330
B5
100
AcDbEntity
  8
Layer 1
370
     0
100
AcDb2dPolyline
 66
     1
 10
0.0
 20
0.0
 30
0.0
  0
VERTEX
  5
D9
330
D8
100
AcDbEntity
  8
Layer 1
370
     0
100
AcDbVertex
100
AcDb2dVertex
 10
196.7860509934264
 20
103.8390360324991
 30
0.0
  0
VERTEX
  5
DA
330
D8
100
AcDbEntity
  8
Layer 1
370
     0
100
AcDbVertex
100
AcDb2dVertex
 10
196.3182067178952
 20
105.7107576443996
 30
0.0
  0
VERTEX
  5
DB
330
D8
100
AcDbEntity
  8
Layer 1
370
     0
100
AcDbVertex
100
AcDb2dVertex
 10
197.2542397787334
 20
105.7107576443996
 30
0.0
  0
VERTEX
  5
DC
330
D8
100
AcDbEntity
  8
Layer 1
370
     0
100
AcDbVertex
100
AcDb2dVertex
 10
196.7860509934264
 20
103.8390360324991
 30
0.0
  0
SEQEND
  5
DD
330
D8
100
AcDbEntity
  8
Layer 1
370
     0
  0
HATCH
  5
DE
330
B5
100
AcDbEntity
  8
Layer 1
 62
     7
420
 16777215
100
AcDbHatch
 10
0.0
 20
0.0
 30
0.0
210
0.0
220
0.0
230
1.0
  2
SOLID
 70
     1
 71
     0
 91
        1
 92
        1
 93
        3
 72
     1
 10
196.7860509934264
 20
103.8390360324991
 11
196.3182067178952
 21
105.7107576443996
 72
     1
 10
196.3182067178952
 20
105.7107576443996
 11
197.2542397787334
 21
105.7107576443996
 72
     1
 10
197.2542397787334
 20
105.7107576443996
 11
196.7860509934264
 21
103.8390360324991
 97
        0
 75
     2
 76
     1
 98
        0
  0
POLYLINE
  5
DF
330
B5
100
AcDbEntity
  8
Layer 1
370
     0
100
AcDb2dPolyline
 66
     1
 10
0.0
 20
0.0
 30
0.0
  0
VERTEX
  5
E0
330
DF
100
AcDbEntity
  8
Layer 1
370
     0
100
AcDbVertex
100
AcDb2dVertex
 10
196.7860509934264
 20
198.3697624327614
 30
0.0
  0
VERTEX
  5
E1
330
DF
100
AcDbEntity
  8
Layer 1
370
     0
100
AcDbVertex
100
AcDb2dVertex
 10
197.2542397787334
 20
196.4978685659729
 30
0.0
  0
VERTEX
  5
E2
330
DF
100
AcDbEntity
  8
Layer 1
370
     0
100
AcDbVertex
100
AcDb2dVertex
 10
196.3182067178952
 20
196.4978685659729
 30
0.0
  0
VERTEX
  5
E3
330
DF
100
AcDbEntity
  8
Layer 1
370
     0
100
AcDbVertex
100
AcDb2dVertex
 10
196.7860509934264
 20
198.3697624327614
 30
0.0
  0
SEQEND
  5
E4
330
DF
100
AcDbEntity
  8
Layer 1
370
     0
  0
HATCH
  5
E5
330
B5
100
AcDbEntity
  8
Layer 1
 62
     7
420
 16777215
100
AcDbHatch
 10
0.0
 20
0.0
 30
0.0
210
0.0
220
0.0
230
1.0
  2
SOLID
 70
     1
 71
     0
 91
        1
 92
        1
 93
        3
 72
     1
 10
196.7860509934264
 20
198.3697624327614
 11
197.2542397787334
 21
196.4978685659729
 72
     1
 10
197.2542397787334
 20
196.4978685659729
 11
196.3182067178952
 21
196.4978685659729
 72
     1
 10
196.3182067178952
 20
196.4978685659729
 11
196.7860509934264
 21
198.3697624327614
 97
        0
 75
     2
 76
     1
 98
        0
  0
MTEXT
  5
E6
330
B5
100
AcDbEntity
  8
Layer 1
 62
     7
420
 16777215
100
AcDbMText
 10
15.80972586617409
 20
173.2636125216156
 30
0.0
 40
1.654761224542527
 41
0.0
 71
     7
 72
     1
  1
\fHelvetica|b0|i0|c0|p34;\W1;226
 73
     1
 44
1.0
  0
POLYLINE
  5
E7
330
B5
100
AcDbEntity
  8
Layer 1
370
     0
100
AcDb2dPolyline
 66
     1
 10
0.0
 20
0.0
 30
0.0
  0
VERTEX
  5
E8
330
E7
100
AcDbEntity
  8
Layer 1
370
     0
100
AcDbVertex
100
AcDb2dVertex
 10
17.49455092470525
 20
103.8390360324991
 30
0.0
  0
VERTEX
  5
E9
330
E7
100
AcDbEntity
  8
Layer 1
370
     0
100
AcDbVertex
100
AcDb2dVertex
 10
17.02653439428616
 20
105.7107576443996
 30
0.0
  0
VERTEX
  5
EA
330
E7
100
AcDbEntity
  8
Layer 1
370
     0
100
AcDbVertex
100
AcDb2dVertex
 10
17.96256745512435
 20
105.7107576443996
 30
0.0
  0
VERTEX
  5
EB
330
E7
100
AcDbEntity
  8
Layer 1
370
     0
100
AcDbVertex
100
AcDb2dVertex
 10
17.49455092470525
 20
103.8390360324991
 30
0.0
  0
SEQEND
  5
EC
330
E7
100
AcDbEntity
  8
Layer 1
370
     0
  0
HATCH
  5
ED
330
B5
100
AcDbEntity
  8
Layer 1
 62
     7
420
 16777215
100
AcDbHatch
 10
0.0
 20
0.0
 30
0.0
210
0.0
220
0.0
230
1.0
  2
SOLID
 70
     1
 71
     0
 91
        1
 92
        1
 93
        3
 72
     1
 10
17.49455092470525
 20
103.8390360324991
 11
17.02653439428616
 21
105.7107576443996
 72
     1
 10
17.02653439428616
 20
105.7107576443996
 11
17.96256745512435
 21
105.7107576443996
 72
     1
 10
17.96256745512435
 20
105.7107576443996
 11
17.49455092470525
 21
103.8390360324991
 97
        0
 75
     2
 76
     1
 98
        0
  0
POLYLINE
  5
EE
330
B5
100
AcDbEntity
  8
Layer 1
370
     0
100
AcDb2dPolyline
 66
     1
 10
0.0
 20
0.0
 30
0.0
  0
VERTEX
  5
EF
330
EE
100
AcDbEntity
  8
Layer 1
370
     0
100
AcDbVertex
100
AcDb2dVertex
 10
17.49455092470525
 20
244.5602551324085
 30
0.0
  0
VERTEX
  5
F0
330
EE
100
AcDbEntity
  8
Layer 1
370
     0
100
AcDbVertex
100
AcDb2dVertex
 10
17.96256745512435
 20
242.6881890107322
 30
0.0
  0
VERTEX
  5
F1
330
EE
100
AcDbEntity
  8
Layer 1
370
     0
100
AcDbVertex
100
AcDb2dVertex
 10
17.02653439428616
 20
242.6881890107322
 30
0.0
  0
VERTEX
  5
F2
330
EE
100
AcDbEntity
  8
Layer 1
370
     0
100
AcDbVertex
100
AcDb2dVertex
 10
17.49455092470525
 20
244.5602551324085
 30
0.0
  0
SEQEND
  5
F3
330
EE
100
AcDbEntity
  8
Layer 1
370
     0
  0
HATCH
  5
F4
330
B5
100
AcDbEntity
  8
Layer 1
 62
     7
420
 16777215
100
AcDbHatch
 10
0.0
 20
0.0
 30
0.0
210
0.0
220
0.0
230
1.0
  2
SOLID
 70
     1
 71
     0
 91
        1
 92
        1
 93
        3
 72
     1
 10
17.49455092470525
 20
244.5602551324085
 11
17.96256745512435
 21
242.6881890107322
 72
     1
 10
17.96256745512435
 20
242.6881890107322
 11
17.02653439428616
 21
242.6881890107322
 72
     1
 10
17.02653439428616
 20
242.6881890107322
 11
17.49455092470525
 21
244.5602551324085
 97
        0
 75
     2
 76
     1
 98
        0
  0
MTEXT
  5
F5
330
B5
100
AcDbEntity
  8
Layer 1
 62
     7
420
 16777215
100
AcDbMText
 10
21.36305119712043
 20
219.9932630203838
 30
0.0
 40
1.654761224542527
 41
0.0
 71
     7
 72
     1
  1
\fHelvetica|b0|i0|c0|p34;\W1;75
 73
     1
 44
1.0
  0
POLYLINE
  5
F6
330
B5
100
AcDbEntity
  8
Layer 1
370
     0
100
AcDb2dPolyline
 66
     1
 10
0.0
 20
0.0
 30
0.0
  0
VERTEX
  5
F7
330
F6
100
AcDbEntity
  8
Layer 1
370
     0
100
AcDbVertex
100
AcDb2dVertex
 10
23.30298574462866
 20
197.5444892648417
 30
0.0
  0
VERTEX
  5
F8
330
F6
100
AcDbEntity
  8
Layer 1
370
     0
100
AcDbVertex
100
AcDb2dVertex
 10
22.76968461169619
 20
199.3989853879525
 30
0.0
  0
VERTEX
  5
F9
330
F6
100
AcDbEntity
  8
Layer 1
370
     0
100
AcDbVertex
100
AcDb2dVertex
 10
23.70520090787068
 20
199.4315415617652
 30
0.0
  0
VERTEX
  5
FA
330
F6
100
AcDbEntity
  8
Layer 1
370
     0
100
AcDbVertex
100
AcDb2dVertex
 10
23.30298574462866
 20
197.5444892648417
 30
0.0
  0
SEQEND
  5
FB
330
F6
100
AcDbEntity
  8
Layer 1
370
     0
  0
HATCH
  5
FC
330
B5
100
AcDbEntity
  8
Layer 1
 62
     7
420
 16777215
100
AcDbHatch
 10
0.0
 20
0.0
 30
0.0
210
0.0
220
0.0
230
1.0
  2
SOLID
 70
     1
 71
     0
 91
        1
 92
        1
 93
        3
 72
     1
 10
23.30298574462866
 20
197.5444892648417
 11
22.76968461169619
 21
199.3989853879525
 72
     1
 10
22.76968461169619
 20
199.3989853879525
 11
23.70520090787068
 21
199.4315415617652
 72
     1
 10
23.70520090787068
 20
199.4315415617652
 11
23.30298574462866
 21
197.5444892648417
 97
        0
 75
     2
 76
     1
 98
        0
  0
POLYLINE
  5
FD
330
B5
100
AcDbEntity
  8
Layer 1
370
     0
100
AcDb2dPolyline
 66
     1
 10
0.0
 20
0.0
 30
0.0
  0
VERTEX
  5
FE
330
FD
100
AcDbEntity
  8
Layer 1
370
     0
100
AcDbVertex
100
AcDb2dVertex
 10
21.66949264269112
 20
244.3135861329385
 30
0.0
  0
VERTEX
  5
FF
330
FD
100
AcDbEntity
  8
Layer 1
370
     0
100
AcDbVertex
100
AcDb2dVertex
 10
22.20279377562359
 20
242.4592622647156
 30
0.0
  0
VERTEX
  5
100
330
FD
100
AcDbEntity
  8
Layer 1
370
     0
100
AcDbVertex
100
AcDb2dVertex
 10
21.2672774794491
 20
242.426533836015
 30
0.0
  0
VERTEX
  5
101
330
FD
100
AcDbEntity
  8
Layer 1
370
     0
100
AcDbVertex
100
AcDb2dVertex
 10
21.66949264269112
 20
244.3135861329385
 30
0.0
  0
SEQEND
  5
102
330
FD
100
AcDbEntity
  8
Layer 1
370
     0
  0
HATCH
  5
103
330
B5
100
AcDbEntity
  8
Layer 1
 62
     7
420
 16777215
100
AcDbHatch
 10
0.0
 20
0.0
 30
0.0
210
0.0
220
0.0
230
1.0
  2
SOLID
 70
     1
 71
     0
 91
        1
 92
        1
 93
        3
 72
     1
 10
21.66949264269112
 20
244.3135861329385
 11
22.20279377562359
 21
242.4592622647156
 72
     1
 10
22.20279377562359
 20
242.4592622647156
 11
21.2672774794491
 21
242.426533836015
 72
     1
 10
21.2672774794491
 20
242.426533836015
 11
21.66949264269112
 21
244.3135861329385
 97
        0
 75
     2
 76
     1
 98
        0
  0
POLYLINE
  5
104
330
B5
100
AcDbEntity
  8
Layer 1
 62
     7
420
 16777215
370
     9
100
AcDb2dPolyline
 66
     1
 10
0.0
 20
0.0
 30
0.0
  0
VERTEX
  5
105
330
104
100
AcDbEntity
  8
Layer 1
 62
     7
420
 16777215
370
     9
100
AcDbVertex
100
AcDb2dVertex
 10
111.9673996826339
 20
243.8684795026098
 30
0.0
  0
VERTEX
  5
106
330
104
100
AcDbEntity
  8
Layer 1
 62
     7
420
 16777215
370
     9
100
AcDbVertex
100
AcDb2dVertex
 10
111.9673996826339
 20
243.5566981555143
 30
0.0
  0
VERTEX
  5
107
330
104
100
AcDbEntity
  8
Layer 1
 62
     7
420
 16777215
370
     9
100
AcDbVertex
100
AcDb2dVertex
 10
112.1234626110695
 20
243.4006352270787
 30
0.0
  0
VERTEX
  5
108
330
104
100
AcDbEntity
  8
Layer 1
 62
     7
420
 16777215
370
     9
100
AcDbVertex
100
AcDb2dVertex
 10
112.4355884679408
 20
243.4006352270787
 30
0.0
  0
VERTEX
  5
109
330
104
100
AcDbEntity
  8
Layer 1
 62
     7
420
 16777215
370
     9
100
AcDbVertex
100
AcDb2dVertex
 10
112.5913068866007
 20
243.5566981555143
 30
0.0
  0
VERTEX
  5
10A
330
104
100
AcDbEntity
  8
Layer 1
 62
     7
420
 16777215
370
     9
100
AcDbVertex
100
AcDb2dVertex
 10
112.5913068866007
 20
243.8684795026098
 30
0.0
  0
VERTEX
  5
10B
330
104
100
AcDbEntity
  8
Layer 1
 62
     7
420
 16777215
370
     9
100
AcDbVertex
100
AcDb2dVertex
 10
112.4355884679408
 20
244.0245424310455
 30
0.0
  0
VERTEX
  5
10C
330
104
100
AcDbEntity
  8
Layer 1
 62
     7
420
 16777215
370
     9
100
AcDbVertex
100
AcDb2dVertex
 10
112.1234626110695
 20
244.0245424310455
 30
0.0
  0
VERTEX
  5
10D
330
104
100
AcDbEntity
  8
Layer 1
 62
     7
420
 16777215
370
     9
100
AcDbVertex
100
AcDb2dVertex
 10
111.9673996826339
 20
243.8684795026098
 30
0.0
  0
SEQEND
  5
10E
330
104
100
AcDbEntity
  8
Layer 1
370
     9
  0
MTEXT
  5
10F
330
B5
100
AcDbEntity
  8
Layer 1
 62
     7
420
 16777215
100
AcDbMText
 10
109.7211959444428
 20
241.6846320338379
 30
0.0
 40
1.654761224542527
 41
0.0
 71
     7
 72
     1
  1
\fHelvetica|b0|i0|c0|p34;\W1;88
 73
     1
 44
1.0
  0
POLYLINE
  5
110
330
B5
100
AcDbEntity
  8
Layer 1
370
     0
100
AcDb2dPolyline
 66
     1
 10
0.0
 20
0.0
 30
0.0
  0
VERTEX
  5
111
330
110
100
AcDbEntity
  8
Layer 1
370
     0
100
AcDbVertex
100
AcDb2dVertex
 10
119.6158612150846
 20
224.3209948239352
 30
0.0
  0
VERTEX
  5
112
330
110
100
AcDbEntity
  8
Layer 1
370
     0
100
AcDbVertex
100
AcDb2dVertex
 10
119.018481263854
 20
226.1555093800498
 30
0.0
  0
VERTEX
  5
113
330
110
100
AcDbEntity
  8
Layer 1
370
     0
100
AcDbVertex
100
AcDb2dVertex
 10
119.9521027562617
 20
226.2209662374511
 30
0.0
  0
VERTEX
  5
114
330
110
100
AcDbEntity
  8
Layer 1
370
     0
100
AcDbVertex
100
AcDb2dVertex
 10
119.6158612150846
 20
224.3209948239352
 30
0.0
  0
SEQEND
  5
115
330
110
100
AcDbEntity
  8
Layer 1
370
     0
  0
HATCH
  5
116
330
B5
100
AcDbEntity
  8
Layer 1
 62
     7
420
 16777215
100
AcDbHatch
 10
0.0
 20
0.0
 30
0.0
210
0.0
220
0.0
230
1.0
  2
SOLID
 70
     1
 71
     0
 91
        1
 92
        1
 93
        3
 72
     1
 10
119.6158612150846
 20
224.3209948239352
 11
119.018481263854
 21
226.1555093800498
 72
     1
 10
119.018481263854
 20
226.1555093800498
 11
119.9521027562617
 21
226.2209662374511
 72
     1
 10
119.9521027562617
 20
226.2209662374511
 11
119.6158612150846
 21
224.3209948239352
 97
        0
 75
     2
 76
     1
 98
        0
  0
POLYLINE
  5
117
330
B5
100
AcDbEntity
  8
Layer 1
370
     0
100
AcDb2dPolyline
 66
     1
 10
0.0
 20
0.0
 30
0.0
  0
VERTEX
  5
118
330
117
100
AcDbEntity
  8
Layer 1
370
     0
100
AcDbVertex
100
AcDb2dVertex
 10
92.89568300433375
 20
250.1244325212925
 30
0.0
  0
VERTEX
  5
119
330
117
100
AcDbEntity
  8
Layer 1
370
     0
100
AcDbVertex
100
AcDb2dVertex
 10
94.78273530125726
 20
250.5266476845345
 30
0.0
  0
VERTEX
  5
11A
330
117
100
AcDbEntity
  8
Layer 1
370
     0
100
AcDbVertex
100
AcDb2dVertex
 10
94.74983461766872
 20
249.5913036432479
 30
0.0
  0
VERTEX
  5
11B
330
117
100
AcDbEntity
  8
Layer 1
370
     0
100
AcDbVertex
100
AcDb2dVertex
 10
92.89568300433375
 20
250.1244325212925
 30
0.0
  0
SEQEND
  5
11C
330
117
100
AcDbEntity
  8
Layer 1
370
     0
  0
HATCH
  5
11D
330
B5
100
AcDbEntity
  8
Layer 1
 62
     7
420
 16777215
100
AcDbHatch
 10
0.0
 20
0.0
 30
0.0
210
0.0
220
0.0
230
1.0
  2
SOLID
 70
     1
 71
     0
 91
        1
 92
        1
 93
        3
 72
     1
 10
92.89568300433375
 20
250.1244325212925
 11
94.78273530125726
 21
250.5266476845345
 72
     1
 10
94.78273530125726
 20
250.5266476845345
 11
94.74983461766872
 21
249.5913036432479
 72
     1
 10
94.74983461766872
 20
249.5913036432479
 11
92.89568300433375
 21
250.1244325212925
 97
        0
 75
     2
 76
     1
 98
        0
  0
MTEXT
  5
11E
330
B5
100
AcDbEntity
  8
Layer 1
 62
     7
420
 16777215
100
AcDbMText
 10
156.6651315237562
 20
212.2951920802184
 30
0.0
 40
1.654761224542527
 41
0.0
 71
     7
 72
     1
  1
\fHelvetica|b0|i0|c0|p34;\W1;89
 73
     1
 44
1.0
  0
POLYLINE
  5
11F
330
B5
100
AcDbEntity
  8
Layer 1
370
     0
100
AcDb2dPolyline
 66
     1
 10
0.0
 20
0.0
 30
0.0
  0
VERTEX
  5
120
330
11F
100
AcDbEntity
  8
Layer 1
370
     0
100
AcDbVertex
100
AcDb2dVertex
 10
130.0217789930079
 20
213.2312251410565
 30
0.0
  0
VERTEX
  5
121
330
11F
100
AcDbEntity
  8
Layer 1
370
     0
100
AcDbVertex
100
AcDb2dVertex
 10
131.8935006049085
 20
213.6990694165877
 30
0.0
  0
VERTEX
  5
122
330
11F
100
AcDbEntity
  8
Layer 1
370
     0
100
AcDbVertex
100
AcDb2dVertex
 10
131.8935006049085
 20
212.7632086106374
 30
0.0
  0
VERTEX
  5
123
330
11F
100
AcDbEntity
  8
Layer 1
370
     0
100
AcDbVertex
100
AcDb2dVertex
 10
130.0217789930079
 20
213.2312251410565
 30
0.0
  0
SEQEND
  5
124
330
11F
100
AcDbEntity
  8
Layer 1
370
     0
  0
HATCH
  5
125
330
B5
100
AcDbEntity
  8
Layer 1
 62
     7
420
 16777215
100
AcDbHatch
 10
0.0
 20
0.0
 30
0.0
210
0.0
220
0.0
230
1.0
  2
SOLID
 70
     1
 71
     0
 91
        1
 92
        1
 93
        3
 72
     1
 10
130.0217789930079
 20
213.2312251410565
 11
131.8935006049085
 21
213.6990694165877
 72
     1
 10
131.8935006049085
 20
213.6990694165877
 11
131.8935006049085
 21
212.7632086106374
 72
     1
 10
131.8935006049085
 20
212.7632086106374
 11
130.0217789930079
 21
213.2312251410565
 97
        0
 75
     2
 76
     1
 98
        0
  0
POLYLINE
  5
126
330
B5
100
AcDbEntity
  8
Layer 1
370
     0
100
AcDb2dPolyline
 66
     1
 10
0.0
 20
0.0
 30
0.0
  0
VERTEX
  5
127
330
126
100
AcDbEntity
  8
Layer 1
370
     0
100
AcDbVertex
100
AcDb2dVertex
 10
185.5550323024713
 20
213.2312251410565
 30
0.0
  0
VERTEX
  5
128
330
126
100
AcDbEntity
  8
Layer 1
370
     0
100
AcDbVertex
100
AcDb2dVertex
 10
183.6829661807949
 20
212.7632086106374
 30
0.0
  0
VERTEX
  5
129
330
126
100
AcDbEntity
  8
Layer 1
370
     0
100
AcDbVertex
100
AcDb2dVertex
 10
183.6829661807949
 20
213.6990694165877
 30
0.0
  0
VERTEX
  5
12A
330
126
100
AcDbEntity
  8
Layer 1
370
     0
100
AcDbVertex
100
AcDb2dVertex
 10
185.5550323024713
 20
213.2312251410565
 30
0.0
  0
SEQEND
  5
12B
330
126
100
AcDbEntity
  8
Layer 1
370
     0
  0
HATCH
  5
12C
330
B5
100
AcDbEntity
  8
Layer 1
 62
     7
420
 16777215
100
AcDbHatch
 10
0.0
 20
0.0
 30
0.0
210
0.0
220
0.0
230
1.0
  2
SOLID
 70
     1
 71
     0
 91
        1
 92
        1
 93
        3
 72
     1
 10
185.5550323024713
 20
213.2312251410565
 11
183.6829661807949
 21
212.7632086106374
 72
     1
 10
183.6829661807949
 20
212.7632086106374
 11
183.6829661807949
 21
213.6990694165877
 72
     1
 10
183.6829661807949
 20
213.6990694165877
 11
185.5550323024713
 21
213.2312251410565
 97
        0
 75
     2
 76
     1
 98
        0
  0
POLYLINE
  5
12D
330
B5
100
AcDbEntity
  8
Layer 1
 62
     7
420
 16777215
370
    25
100
AcDb2dPolyline
 66
     1
 10
0.0
 20
0.0
 30
0.0
  0
VERTEX
  5
12E
330
12D
100
AcDbEntity
  8
Layer 1
 62
     7
420
 16777215
370
    25
100
AcDbVertex
100
AcDb2dVertex
 10
-14.03773983436649
 20
79.57796860138124
 30
0.0
  0
VERTEX
  5
12F
330
12D
100
AcDbEntity
  8
Layer 1
 62
     7
420
 16777215
370
    25
100
AcDbVertex
100
AcDb2dVertex
 10
-14.03773983436649
 20
264.8966671976564
 30
0.0
  0
SEQEND
  5
130
330
12D
100
AcDbEntity
  8
Layer 1
370
    25
  0
POLYLINE
  5
131
330
B5
100
AcDbEntity
  8
Layer 1
 62
     7
420
 16777215
370
    25
100
AcDb2dPolyline
 66
     1
 10
0.0
 20
0.0
 30
0.0
  0
VERTEX
  5
132
330
131
100
AcDbEntity
  8
Layer 1
 62
     7
420
 16777215
370
    25
100
AcDbVertex
100
AcDb2dVertex
 10
-14.03773983436649
 20
79.57796860138124
 30
0.0
  0
VERTEX
  5
133
330
131
100
AcDbEntity
  8
Layer 1
 62
     7
420
 16777215
370
    25
100
AcDbVertex
100
AcDb2dVertex
 10
248.0287795551244
 20
79.57796860138124
 30
0.0
  0
SEQEND
  5
134
330
131
100
AcDbEntity
  8
Layer 1
370
    25
  0
POLYLINE
  5
135
330
B5
100
AcDbEntity
  8
Layer 1
 62
     7
420
 16777215
370
    25
100
AcDb2dPolyline
 66
     1
 10
0.0
 20
0.0
 30
0.0
  0
VERTEX
  5
136
330
135
100
AcDbEntity
  8
Layer 1
 62
     7
420
 16777215
370
    25
100
AcDbVertex
100
AcDb2dVertex
 10
-14.03773983436649
 20
264.8966671976564
 30
0.0
  0
VERTEX
  5
137
330
135
100
AcDbEntity
  8
Layer 1
 62
     7
420
 16777215
370
    25
100
AcDbVertex
100
AcDb2dVertex
 10
248.0287795551244
 20
264.8966671976564
 30
0.0
  0
SEQEND
  5
138
330
135
100
AcDbEntity
  8
Layer 1
370
    25
  0
POLYLINE
  5
139
330
B5
100
AcDbEntity
  8
Layer 1
 62
     7
420
 16777215
370
    25
100
AcDb2dPolyline
 66
     1
 10
0.0
 20
0.0
 30
0.0
  0
VERTEX
  5
13A
330
139
100
AcDbEntity
  8
Layer 1
 62
     7
420
 16777215
370
    25
100
AcDbVertex
100
AcDb2dVertex
 10
248.0287795551244
 20
79.57796860138124
 30
0.0
  0
VERTEX
  5
13B
330
139
100
AcDbEntity
  8
Layer 1
 62
     7
420
 16777215
370
    25
100
AcDbVertex
100
AcDb2dVertex
 10
248.0287795551244
 20
264.8966671976564
 30
0.0
  0
SEQEND
  5
13C
330
139
100
AcDbEntity
  8
Layer 1
370
    25
  0
POLYLINE
  5
13D
330
B5
100
AcDbEntity
  8
Layer 1
 62
     7
420
 16777215
370
    25
100
AcDb2dPolyline
 66
     1
 10
0.0
 20
0.0
 30
0.0
  0
VERTEX
  5
13E
330
13D
100
AcDbEntity
  8
Layer 1
 62
     7
420
 16777215
370
    25
100
AcDbVertex
100
AcDb2dVertex
 10
31.1767566704501
 20
245.8943692391792
 30
0.0
  0
VERTEX
  5
13F
330
13D
100
AcDbEntity
  8
Layer 1
 62
     7
420
 16777215
370
    25
100
AcDbVertex
100
AcDb2dVertex
 10
30.75249288155711
 20
244.6308796364468
 30
0.0
  0
SEQEND
  5
140
330
13D
100
AcDbEntity
  8
Layer 1
370
    25
  0
POLYLINE
  5
141
330
B5
100
AcDbEntity
  8
Layer 1
 62
     7
420
 16777215
370
    25
100
AcDb2dPolyline
 66
     1
 10
0.0
 20
0.0
 30
0.0
  0
VERTEX
  5
142
330
141
100
AcDbEntity
  8
Layer 1
 62
     7
420
 16777215
370
    25
100
AcDbVertex
100
AcDb2dVertex
 10
17.49455092470525
 20
244.5602551324085
 30
0.0
  0
VERTEX
  5
143
330
141
100
AcDbEntity
  8
Layer 1
 62
     7
420
 16777215
370
    25
100
AcDbVertex
100
AcDb2dVertex
 10
17.49455092470525
 20
176.0717117041302
 30
0.0
  0
SEQEND
  5
144
330
141
100
AcDbEntity
  8
Layer 1
370
    25
  0
POLYLINE
  5
145
330
B5
100
AcDbEntity
  8
Layer 1
 62
     7
420
 16777215
370
    25
100
AcDb2dPolyline
 66
     1
 10
0.0
 20
0.0
 30
0.0
  0
VERTEX
  5
146
330
145
100
AcDbEntity
  8
Layer 1
 62
     7
420
 16777215
370
    25
100
AcDbVertex
100
AcDb2dVertex
 10
17.49455092470525
 20
103.8390360324991
 30
0.0
  0
VERTEX
  5
147
330
145
100
AcDbEntity
  8
Layer 1
 62
     7
420
 16777215
370
    25
100
AcDbVertex
100
AcDb2dVertex
 10
17.49455092470525
 20
172.3277517156653
 30
0.0
  0
SEQEND
  5
148
330
145
100
AcDbEntity
  8
Layer 1
370
    25
  0
POLYLINE
  5
149
330
B5
100
AcDbEntity
  8
Layer 1
 62
     7
420
 16777215
370
    25
100
AcDb2dPolyline
 66
     1
 10
0.0
 20
0.0
 30
0.0
  0
VERTEX
  5
14A
330
149
100
AcDbEntity
  8
Layer 1
 62
     7
420
 16777215
370
    25
100
AcDbVertex
100
AcDb2dVertex
 10
21.66949264269112
 20
244.3135861329385
 30
0.0
  0
VERTEX
  5
14B
330
149
100
AcDbEntity
  8
Layer 1
 62
     7
420
 16777215
370
    25
100
AcDbVertex
100
AcDb2dVertex
 10
22.42086846370257
 20
222.8010176931225
 30
0.0
  0
SEQEND
  5
14C
330
149
100
AcDbEntity
  8
Layer 1
370
    25
  0
POLYLINE
  5
14D
330
B5
100
AcDbEntity
  8
Layer 1
 62
     7
420
 16777215
370
    25
100
AcDb2dPolyline
 66
     1
 10
0.0
 20
0.0
 30
0.0
  0
VERTEX
  5
14E
330
14D
100
AcDbEntity
  8
Layer 1
 62
     7
420
 16777215
370
    25
100
AcDbVertex
100
AcDb2dVertex
 10
23.30298574462866
 20
197.5444892648417
 30
0.0
  0
VERTEX
  5
14F
330
14D
100
AcDbEntity
  8
Layer 1
 62
     7
420
 16777215
370
    25
100
AcDbVertex
100
AcDb2dVertex
 10
22.55160992361721
 20
219.0572299595456
 30
0.0
  0
SEQEND
  5
150
330
14D
100
AcDbEntity
  8
Layer 1
370
    25
  0
POLYLINE
  5
151
330
B5
100
AcDbEntity
  8
Layer 1
 62
     7
420
 16777215
370
    25
100
AcDb2dPolyline
 66
     1
 10
0.0
 20
0.0
 30
0.0
  0
VERTEX
  5
152
330
151
100
AcDbEntity
  8
Layer 1
 62
     7
420
 16777215
370
    25
100
AcDbVertex
100
AcDb2dVertex
 10
48.01363843316046
 20
246.4822751715754
 30
0.0
  0
VERTEX
  5
153
330
151
100
AcDbEntity
  8
Layer 1
 62
     7
420
 16777215
370
    25
100
AcDbVertex
100
AcDb2dVertex
 10
47.58937464426748
 20
245.2187855688429
 30
0.0
  0
SEQEND
  5
154
330
151
100
AcDbEntity
  8
Layer 1
370
    25
  0
POLYLINE
  5
155
330
B5
100
AcDbEntity
  8
Layer 1
 62
     7
420
 16777215
370
    25
100
AcDb2dPolyline
 66
     1
 10
0.0
 20
0.0
 30
0.0
  0
VERTEX
  5
156
330
155
100
AcDbEntity
  8
Layer 1
 62
     7
420
 16777215
370
    25
100
AcDbVertex
100
AcDb2dVertex
 10
185.5550323024713
 20
92.60767283176814
 30
0.0
  0
VERTEX
  5
157
330
155
100
AcDbEntity
  8
Layer 1
 62
     7
420
 16777215
370
    25
100
AcDbVertex
100
AcDb2dVertex
 10
110.5776472470721
 20
92.60767283176814
 30
0.0
  0
SEQEND
  5
158
330
155
100
AcDbEntity
  8
Layer 1
370
    25
  0
POLYLINE
  5
159
330
B5
100
AcDbEntity
  8
Layer 1
 62
     7
420
 16777215
370
    25
100
AcDb2dPolyline
 66
     1
 10
0.0
 20
0.0
 30
0.0
  0
VERTEX
  5
15A
330
159
100
AcDbEntity
  8
Layer 1
 62
     7
420
 16777215
370
    25
100
AcDbVertex
100
AcDb2dVertex
 10
30.35906271759789
 20
92.60767283176814
 30
0.0
  0
VERTEX
  5
15B
330
159
100
AcDbEntity
  8
Layer 1
 62
     7
420
 16777215
370
    25
100
AcDbVertex
100
AcDb2dVertex
 10
105.3362755181092
 20
92.60767283176814
 30
0.0
  0
SEQEND
  5
15C
330
159
100
AcDbEntity
  8
Layer 1
370
    25
  0
POLYLINE
  5
15D
330
B5
100
AcDbEntity
  8
Layer 1
 62
     7
420
 16777215
370
    25
100
AcDb2dPolyline
 66
     1
 10
0.0
 20
0.0
 30
0.0
  0
VERTEX
  5
15E
330
15D
100
AcDbEntity
  8
Layer 1
 62
     7
420
 16777215
370
    25
100
AcDbVertex
100
AcDb2dVertex
 10
185.5550323024713
 20
97.59927497327884
 30
0.0
  0
VERTEX
  5
15F
330
15D
100
AcDbEntity
  8
Layer 1
 62
     7
420
 16777215
370
    25
100
AcDbVertex
100
AcDb2dVertex
 10
127.9626440630742
 20
97.59927497327884
 30
0.0
  0
SEQEND
  5
160
330
15D
100
AcDbEntity
  8
Layer 1
370
    25
  0
POLYLINE
  5
161
330
B5
100
AcDbEntity
  8
Layer 1
 62
     7
420
 16777215
370
    25
100
AcDb2dPolyline
 66
     1
 10
0.0
 20
0.0
 30
0.0
  0
VERTEX
  5
162
330
161
100
AcDbEntity
  8
Layer 1
 62
     7
420
 16777215
370
    25
100
AcDbVertex
100
AcDb2dVertex
 10
65.12905634960202
 20
97.59927497327884
 30
0.0
  0
VERTEX
  5
163
330
161
100
AcDbEntity
  8
Layer 1
 62
     7
420
 16777215
370
    25
100
AcDbVertex
100
AcDb2dVertex
 10
122.7212723341113
 20
97.59927497327884
 30
0.0
  0
SEQEND
  5
164
330
161
100
AcDbEntity
  8
Layer 1
370
    25
  0
POLYLINE
  5
165
330
B5
100
AcDbEntity
  8
Layer 1
 62
     7
420
 16777215
370
    25
100
AcDb2dPolyline
 66
     1
 10
0.0
 20
0.0
 30
0.0
  0
VERTEX
  5
166
330
165
100
AcDbEntity
  8
Layer 1
 62
     7
420
 16777215
370
    25
100
AcDbVertex
100
AcDb2dVertex
 10
32.38581372860675
 20
197.8616105134621
 30
0.0
  0
VERTEX
  5
167
330
165
100
AcDbEntity
  8
Layer 1
 62
     7
420
 16777215
370
    25
100
AcDbVertex
100
AcDb2dVertex
 10
30.75249288155711
 20
244.6308796364468
 30
0.0
  0
SEQEND
  5
168
330
165
100
AcDbEntity
  8
Layer 1
370
    25
  0
POLYLINE
  5
169
330
B5
100
AcDbEntity
  8
Layer 1
 62
     7
420
 16777215
370
    25
100
AcDb2dPolyline
 66
     1
 10
0.0
 20
0.0
 30
0.0
  0
VERTEX
  5
16A
330
169
100
AcDbEntity
  8
Layer 1
 62
     7
420
 16777215
370
    25
100
AcDbVertex
100
AcDb2dVertex
 10
32.89723849077616
 20
196.6310215943182
 30
0.0
  0
VERTEX
  5
16B
330
169
100
AcDbEntity
  8
Layer 1
 62
     7
420
 16777215
370
    25
100
AcDbVertex
100
AcDb2dVertex
 10
31.1767566704501
 20
245.8943692391792
 30
0.0
  0
SEQEND
  5
16C
330
169
100
AcDbEntity
  8
Layer 1
370
    25
  0
POLYLINE
  5
16D
330
B5
100
AcDbEntity
  8
Layer 1
 62
     7
420
 16777215
370
    25
100
AcDb2dPolyline
 66
     1
 10
0.0
 20
0.0
 30
0.0
  0
VERTEX
  5
16E
330
16D
100
AcDbEntity
  8
Layer 1
 62
     7
420
 16777215
370
    25
100
AcDbVertex
100
AcDb2dVertex
 10
34.1441916242704
 20
196.6746020809564
 30
0.0
  0
VERTEX
  5
16F
330
16D
100
AcDbEntity
  8
Layer 1
 62
     7
420
 16777215
370
    25
100
AcDbVertex
100
AcDb2dVertex
 10
32.42388205883223
 20
245.9379497258174
 30
0.0
  0
SEQEND
  5
170
330
16D
100
AcDbEntity
  8
Layer 1
370
    25
  0
POLYLINE
  5
171
330
B5
100
AcDbEntity
  8
Layer 1
 62
     7
420
 16777215
370
    25
100
AcDb2dPolyline
 66
     1
 10
0.0
 20
0.0
 30
0.0
  0
VERTEX
  5
172
330
171
100
AcDbEntity
  8
Layer 1
 62
     7
420
 16777215
370
    25
100
AcDbVertex
100
AcDb2dVertex
 10
34.56828315827548
 20
197.9380916836888
 30
0.0
  0
VERTEX
  5
173
330
171
100
AcDbEntity
  8
Layer 1
 62
     7
420
 16777215
370
    25
100
AcDbVertex
100
AcDb2dVertex
 10
32.93513456611374
 20
244.7071885517856
 30
0.0
  0
SEQEND
  5
174
330
171
100
AcDbEntity
  8
Layer 1
370
    25
  0
POLYLINE
  5
175
330
B5
100
AcDbEntity
  8
Layer 1
 62
     7
420
 16777215
370
    25
100
AcDb2dPolyline
 66
     1
 10
0.0
 20
0.0
 30
0.0
  0
VERTEX
  5
176
330
175
100
AcDbEntity
  8
Layer 1
 62
     7
420
 16777215
370
    25
100
AcDbVertex
100
AcDb2dVertex
 10
30.35906271759789
 20
196.8551252034736
 30
0.0
  0
VERTEX
  5
177
330
175
100
AcDbEntity
  8
Layer 1
 62
     7
420
 16777215
370
    25
100
AcDbVertex
100
AcDb2dVertex
 10
30.35906271759789
 20
90.73595121986756
 30
0.0
  0
SEQEND
  5
178
330
175
100
AcDbEntity
  8
Layer 1
370
    25
  0
POLYLINE
  5
179
330
B5
100
AcDbEntity
  8
Layer 1
 62
     7
420
 16777215
370
    25
100
AcDb2dPolyline
 66
     1
 10
0.0
 20
0.0
 30
0.0
  0
VERTEX
  5
17A
330
179
100
AcDbEntity
  8
Layer 1
 62
     7
420
 16777215
370
    25
100
AcDbVertex
100
AcDb2dVertex
 10
34.56828315827548
 20
197.9380916836888
 30
0.0
  0
VERTEX
  5
17B
330
179
100
AcDbEntity
  8
Layer 1
 62
     7
420
 16777215
370
    25
100
AcDbVertex
100
AcDb2dVertex
 10
34.1441916242704
 20
196.6746020809564
 30
0.0
  0
SEQEND
  5
17C
330
179
100
AcDbEntity
  8
Layer 1
370
    25
  0
POLYLINE
  5
17D
330
B5
100
AcDbEntity
  8
Layer 1
 62
     7
420
 16777215
370
    25
100
AcDb2dPolyline
 66
     1
 10
0.0
 20
0.0
 30
0.0
  0
VERTEX
  5
17E
330
17D
100
AcDbEntity
  8
Layer 1
 62
     7
420
 16777215
370
    25
100
AcDbVertex
100
AcDb2dVertex
 10
115.4986248845446
 20
104.1649422804022
 30
0.0
  0
VERTEX
  5
17F
330
17D
100
AcDbEntity
  8
Layer 1
 62
     7
420
 16777215
370
    25
100
AcDbVertex
100
AcDb2dVertex
 10
118.6849958008834
 20
104.5745644038239
 30
0.0
  0
VERTEX
  5
180
330
17D
100
AcDbEntity
  8
Layer 1
 62
     7
420
 16777215
370
    25
100
AcDbVertex
100
AcDb2dVertex
 10
121.8458729938132
 20
105.1481731805245
 30
0.0
  0
VERTEX
  5
181
330
17D
100
AcDbEntity
  8
Layer 1
 62
     7
420
 16777215
370
    25
100
AcDbVertex
100
AcDb2dVertex
 10
124.972988228715
 20
105.8833570420735
 30
0.0
  0
VERTEX
  5
182
330
17D
100
AcDbEntity
  8
Layer 1
 62
     7
420
 16777215
370
    25
100
AcDbVertex
100
AcDb2dVertex
 10
128.0580732709697
 20
106.7787379493678
 30
0.0
  0
VERTEX
  5
183
330
17D
100
AcDbEntity
  8
Layer 1
 62
     7
420
 16777215
370
    25
100
AcDbVertex
100
AcDb2dVertex
 10
131.093204395734
 20
107.8315598242009
 30
0.0
  0
SEQEND
  5
184
330
17D
100
AcDbEntity
  8
Layer 1
370
    25
  0
POLYLINE
  5
185
330
B5
100
AcDbEntity
  8
Layer 1
 62
     7
420
 16777215
370
    25
100
AcDb2dPolyline
 66
     1
 10
0.0
 20
0.0
 30
0.0
  0
VERTEX
  5
186
330
185
100
AcDbEntity
  8
Layer 1
 62
     7
420
 16777215
370
    25
100
AcDbVertex
100
AcDb2dVertex
 10
112.2957174989676
 20
103.9193068102596
 30
0.0
  0
VERTEX
  5
187
330
185
100
AcDbEntity
  8
Layer 1
 62
     7
420
 16777215
370
    25
100
AcDbVertex
100
AcDb2dVertex
 10
115.4986248845446
 20
104.1649422804022
 30
0.0
  0
SEQEND
  5
188
330
185
100
AcDbEntity
  8
Layer 1
370
    25
  0
POLYLINE
  5
189
330
B5
100
AcDbEntity
  8
Layer 1
 62
     7
420
 16777215
370
    25
100
AcDb2dPolyline
 66
     1
 10
0.0
 20
0.0
 30
0.0
  0
VERTEX
  5
18A
330
189
100
AcDbEntity
  8
Layer 1
 62
     7
420
 16777215
370
    25
100
AcDbVertex
100
AcDb2dVertex
 10
109.1317397180556
 20
103.8390360324991
 30
0.0
  0
VERTEX
  5
18B
330
189
100
AcDbEntity
  8
Layer 1
 62
     7
420
 16777215
370
    25
100
AcDbVertex
100
AcDb2dVertex
 10
112.7876774588045
 20
103.9461785727717
 30
0.0
  0
VERTEX
  5
18C
330
189
100
AcDbEntity
  8
Layer 1
 62
     7
420
 16777215
370
    25
100
AcDbVertex
100
AcDb2dVertex
 10
116.4305238280732
 20
104.2676061935895
 30
0.0
  0
VERTEX
  5
18D
330
189
100
AcDbEntity
  8
Layer 1
 62
     7
420
 16777215
370
    25
100
AcDbVertex
100
AcDb2dVertex
 10
120.0489100032604
 20
104.8015963460735
 30
0.0
  0
VERTEX
  5
18E
330
189
100
AcDbEntity
  8
Layer 1
 62
     7
420
 16777215
370
    25
100
AcDbVertex
100
AcDb2dVertex
 10
123.62940010311
 20
105.5464264813449
 30
0.0
  0
VERTEX
  5
18F
330
189
100
AcDbEntity
  8
Layer 1
 62
     7
420
 16777215
370
    25
100
AcDbVertex
100
AcDb2dVertex
 10
127.1599362854691
 20
106.5000295407487
 30
0.0
  0
VERTEX
  5
190
330
189
100
AcDbEntity
  8
Layer 1
 62
     7
420
 16777215
370
    25
100
AcDbVertex
100
AcDb2dVertex
 10
130.6288052179607
 20
107.6593049363028
 30
0.0
  0
SEQEND
  5
191
330
189
100
AcDbEntity
  8
Layer 1
370
    25
  0
POLYLINE
  5
192
330
B5
100
AcDbEntity
  8
Layer 1
 62
     7
420
 16777215
370
    25
100
AcDb2dPolyline
 66
     1
 10
0.0
 20
0.0
 30
0.0
  0
VERTEX
  5
193
330
192
100
AcDbEntity
  8
Layer 1
 62
     7
420
 16777215
370
    25
100
AcDbVertex
100
AcDb2dVertex
 10
109.1317397180556
 20
103.8390360324991
 30
0.0
  0
VERTEX
  5
194
330
192
100
AcDbEntity
  8
Layer 1
 62
     7
420
 16777215
370
    25
100
AcDbVertex
100
AcDb2dVertex
 10
112.2957174989676
 20
103.9193068102596
 30
0.0
  0
SEQEND
  5
195
330
192
100
AcDbEntity
  8
Layer 1
370
    25
  0
POLYLINE
  5
196
330
B5
100
AcDbEntity
  8
Layer 1
 62
     7
420
 16777215
370
    25
100
AcDb2dPolyline
 66
     1
 10
0.0
 20
0.0
 30
0.0
  0
VERTEX
  5
197
330
196
100
AcDbEntity
  8
Layer 1
 62
     7
420
 16777215
370
    25
100
AcDbVertex
100
AcDb2dVertex
 10
85.40793528229192
 20
103.8390360324991
 30
0.0
  0
VERTEX
  5
198
330
196
100
AcDbEntity
  8
Layer 1
 62
     7
420
 16777215
370
    25
100
AcDbVertex
100
AcDb2dVertex
 10
15.62265705791677
 20
103.8390360324991
 30
0.0
  0
SEQEND
  5
199
330
196
100
AcDbEntity
  8
Layer 1
370
    25
  0
POLYLINE
  5
19A
330
B5
100
AcDbEntity
  8
Layer 1
 62
     7
420
 16777215
370
    25
100
AcDb2dPolyline
 66
     1
 10
0.0
 20
0.0
 30
0.0
  0
VERTEX
  5
19B
330
19A
100
AcDbEntity
  8
Layer 1
 62
     7
420
 16777215
370
    25
100
AcDbVertex
100
AcDb2dVertex
 10
86.3439683431301
 20
103.8390360324991
 30
0.0
  0
VERTEX
  5
19C
330
19A
100
AcDbEntity
  8
Layer 1
 62
     7
420
 16777215
370
    25
100
AcDbVertex
100
AcDb2dVertex
 10
109.1317397180556
 20
103.8390360324991
 30
0.0
  0
SEQEND
  5
19D
330
19A
100
AcDbEntity
  8
Layer 1
370
    25
  0
POLYLINE
  5
19E
330
B5
100
AcDbEntity
  8
Layer 1
 62
     7
420
 16777215
370
    25
100
AcDb2dPolyline
 66
     1
 10
0.0
 20
0.0
 30
0.0
  0
VERTEX
  5
19F
330
19E
100
AcDbEntity
  8
Layer 1
 62
     7
420
 16777215
370
    25
100
AcDbVertex
100
AcDb2dVertex
 10
110.0677727788938
 20
103.8390360324991
 30
0.0
  0
VERTEX
  5
1A0
330
19E
100
AcDbEntity
  8
Layer 1
 62
     7
420
 16777215
370
    25
100
AcDbVertex
100
AcDb2dVertex
 10
198.6581171151028
 20
103.8390360324991
 30
0.0
  0
SEQEND
  5
1A1
330
19E
100
AcDbEntity
  8
Layer 1
370
    25
  0
POLYLINE
  5
1A2
330
B5
100
AcDbEntity
  8
Layer 1
 62
     7
420
 16777215
370
    25
100
AcDb2dPolyline
 66
     1
 10
0.0
 20
0.0
 30
0.0
  0
VERTEX
  5
1A3
330
1A2
100
AcDbEntity
  8
Layer 1
 62
     7
420
 16777215
370
    25
100
AcDbVertex
100
AcDb2dVertex
 10
85.05136766434288
 20
103.8834777935768
 30
0.0
  0
VERTEX
  5
1A4
330
1A2
100
AcDbEntity
  8
Layer 1
 62
     7
420
 16777215
370
    25
100
AcDbVertex
100
AcDb2dVertex
 10
86.3439683431301
 20
103.8390360324991
 30
0.0
  0
SEQEND
  5
1A5
330
1A2
100
AcDbEntity
  8
Layer 1
370
    25
  0
POLYLINE
  5
1A6
330
B5
100
AcDbEntity
  8
Layer 1
 62
     7
420
 16777215
370
    25
100
AcDb2dPolyline
 66
     1
 10
0.0
 20
0.0
 30
0.0
  0
VERTEX
  5
1A7
330
1A6
100
AcDbEntity
  8
Layer 1
 62
     7
420
 16777215
370
    25
100
AcDbVertex
100
AcDb2dVertex
 10
84.87532316891104
 20
103.896569165057
 30
0.0
  0
VERTEX
  5
1A8
330
1A6
100
AcDbEntity
  8
Layer 1
 62
     7
420
 16777215
370
    25
100
AcDbVertex
100
AcDb2dVertex
 10
86.3439683431301
 20
103.8390360324991
 30
0.0
  0
SEQEND
  5
1A9
330
1A6
100
AcDbEntity
  8
Layer 1
370
    25
  0
POLYLINE
  5
1AA
330
B5
100
AcDbEntity
  8
Layer 1
 62
     7
420
 16777215
370
    25
100
AcDb2dPolyline
 66
     1
 10
0.0
 20
0.0
 30
0.0
  0
VERTEX
  5
1AB
330
1AA
100
AcDbEntity
  8
Layer 1
 62
     7
420
 16777215
370
    25
100
AcDbVertex
100
AcDb2dVertex
 10
83.71794257712381
 20
104.0240377821016
 30
0.0
  0
VERTEX
  5
1AC
330
1AA
100
AcDbEntity
  8
Layer 1
 62
     7
420
 16777215
370
    25
100
AcDbVertex
100
AcDb2dVertex
 10
85.05067864479129
 20
103.8838223033525
 30
0.0
  0
SEQEND
  5
1AD
330
1AA
100
AcDbEntity
  8
Layer 1
370
    25
  0
POLYLINE
  5
1AE
330
B5
100
AcDbEntity
  8
Layer 1
 62
     7
420
 16777215
370
    25
100
AcDb2dPolyline
 66
     1
 10
0.0
 20
0.0
 30
0.0
  0
VERTEX
  5
1AF
330
1AE
100
AcDbEntity
  8
Layer 1
 62
     7
420
 16777215
370
    25
100
AcDbVertex
100
AcDb2dVertex
 10
49.22269549131711
 20
198.4496887007461
 30
0.0
  0
VERTEX
  5
1B0
330
1AE
100
AcDbEntity
  8
Layer 1
 62
     7
420
 16777215
370
    25
100
AcDbVertex
100
AcDb2dVertex
 10
47.58937464426748
 20
245.2187855688429
 30
0.0
  0
SEQEND
  5
1B1
330
1AE
100
AcDbEntity
  8
Layer 1
370
    25
  0
POLYLINE
  5
1B2
330
B5
100
AcDbEntity
  8
Layer 1
 62
     7
420
 16777215
370
    25
100
AcDb2dPolyline
 66
     1
 10
0.0
 20
0.0
 30
0.0
  0
VERTEX
  5
1B3
330
1B2
100
AcDbEntity
  8
Layer 1
 62
     7
420
 16777215
370
    25
100
AcDbVertex
100
AcDb2dVertex
 10
49.73377574371073
 20
197.2189275267143
 30
0.0
  0
VERTEX
  5
1B4
330
1B2
100
AcDbEntity
  8
Layer 1
 62
     7
420
 16777215
370
    25
100
AcDbVertex
100
AcDb2dVertex
 10
48.01363843316046
 20
246.4822751715754
 30
0.0
  0
SEQEND
  5
1B5
330
1B2
100
AcDbEntity
  8
Layer 1
370
    25
  0
POLYLINE
  5
1B6
330
B5
100
AcDbEntity
  8
Layer 1
 62
     7
420
 16777215
370
    25
100
AcDb2dPolyline
 66
     1
 10
0.0
 20
0.0
 30
0.0
  0
VERTEX
  5
1B7
330
1B6
100
AcDbEntity
  8
Layer 1
 62
     7
420
 16777215
370
    25
100
AcDbVertex
100
AcDb2dVertex
 10
51.40516492098585
 20
198.525997616085
 30
0.0
  0
VERTEX
  5
1B8
330
1B6
100
AcDbEntity
  8
Layer 1
 62
     7
420
 16777215
370
    25
100
AcDbVertex
100
AcDb2dVertex
 10
50.98107338698076
 20
197.2625080133525
 30
0.0
  0
SEQEND
  5
1B9
330
1B6
100
AcDbEntity
  8
Layer 1
370
    25
  0
POLYLINE
  5
1BA
330
B5
100
AcDbEntity
  8
Layer 1
 62
     7
420
 16777215
370
    25
100
AcDb2dPolyline
 66
     1
 10
0.0
 20
0.0
 30
0.0
  0
VERTEX
  5
1BB
330
1BA
100
AcDbEntity
  8
Layer 1
 62
     7
420
 16777215
370
    25
100
AcDbVertex
100
AcDb2dVertex
 10
32.89723849077616
 20
196.6310215943182
 30
0.0
  0
VERTEX
  5
1BC
330
1BA
100
AcDbEntity
  8
Layer 1
 62
     7
420
 16777215
370
    25
100
AcDbVertex
100
AcDb2dVertex
 10
32.38581372860675
 20
197.8616105134621
 30
0.0
  0
SEQEND
  5
1BD
330
1BA
100
AcDbEntity
  8
Layer 1
370
    25
  0
POLYLINE
  5
1BE
330
B5
100
AcDbEntity
  8
Layer 1
 62
     7
420
 16777215
370
    25
100
AcDb2dPolyline
 66
     1
 10
0.0
 20
0.0
 30
0.0
  0
VERTEX
  5
1BF
330
1BE
100
AcDbEntity
  8
Layer 1
 62
     7
420
 16777215
370
    25
100
AcDbVertex
100
AcDb2dVertex
 10
50.98107338698076
 20
197.2625080133525
 30
0.0
  0
VERTEX
  5
1C0
330
1BE
100
AcDbEntity
  8
Layer 1
 62
     7
420
 16777215
370
    25
100
AcDbVertex
100
AcDb2dVertex
 10
49.26076382154259
 20
246.5258556582136
 30
0.0
  0
SEQEND
  5
1C1
330
1BE
100
AcDbEntity
  8
Layer 1
370
    25
  0
POLYLINE
  5
1C2
330
B5
100
AcDbEntity
  8
Layer 1
 62
     7
420
 16777215
370
    25
100
AcDb2dPolyline
 66
     1
 10
0.0
 20
0.0
 30
0.0
  0
VERTEX
  5
1C3
330
1C2
100
AcDbEntity
  8
Layer 1
 62
     7
420
 16777215
370
    25
100
AcDbVertex
100
AcDb2dVertex
 10
51.40516492098585
 20
198.525997616085
 30
0.0
  0
VERTEX
  5
1C4
330
1C2
100
AcDbEntity
  8
Layer 1
 62
     7
420
 16777215
370
    25
100
AcDbVertex
100
AcDb2dVertex
 10
49.77184407393621
 20
245.2950944841818
 30
0.0
  0
SEQEND
  5
1C5
330
1C2
100
AcDbEntity
  8
Layer 1
370
    25
  0
POLYLINE
  5
1C6
330
B5
100
AcDbEntity
  8
Layer 1
 62
   253
420
 10066329
370
    25
100
AcDb2dPolyline
 66
     1
 10
0.0
 20
0.0
 30
0.0
  0
VERTEX
  5
1C7
330
1C6
100
AcDbEntity
  8
Layer 1
 62
   253
420
 10066329
370
    25
100
AcDbVertex
100
AcDb2dVertex
 10
54.9165808107883
 20
245.4749285871474
 30
0.0
  0
VERTEX
  5
1C8
330
1C6
100
AcDbEntity
  8
Layer 1
 62
   253
420
 10066329
370
    25
100
AcDbVertex
100
AcDb2dVertex
 10
56.54990165783793
 20
198.7056594641627
 30
0.0
  0
SEQEND
  5
1C9
330
1C6
100
AcDbEntity
  8
Layer 1
370
    25
  0
POLYLINE
  5
1CA
330
B5
100
AcDbEntity
  8
Layer 1
 62
     7
420
 16777215
370
    25
100
AcDb2dPolyline
 66
     1
 10
0.0
 20
0.0
 30
0.0
  0
VERTEX
  5
1CB
330
1CA
100
AcDbEntity
  8
Layer 1
 62
     7
420
 16777215
370
    25
100
AcDbVertex
100
AcDb2dVertex
 10
55.56219213063032
 20
244.8728977539436
 30
0.0
  0
VERTEX
  5
1CC
330
1CA
100
AcDbEntity
  8
Layer 1
 62
     7
420
 16777215
370
    25
100
AcDbVertex
100
AcDb2dVertex
 10
57.15176023615384
 20
199.3510985291168
 30
0.0
  0
SEQEND
  5
1CD
330
1CA
100
AcDbEntity
  8
Layer 1
370
    25
  0
POLYLINE
  5
1CE
330
B5
100
AcDbEntity
  8
Layer 1
 62
     7
420
 16777215
370
    25
100
AcDb2dPolyline
 66
     1
 10
0.0
 20
0.0
 30
0.0
  0
VERTEX
  5
1CF
330
1CE
100
AcDbEntity
  8
Layer 1
 62
     7
420
 16777215
370
    25
100
AcDbVertex
100
AcDb2dVertex
 10
67.66947143632298
 20
121.2684746095788
 30
0.0
  0
VERTEX
  5
1D0
330
1CE
100
AcDbEntity
  8
Layer 1
 62
     7
420
 16777215
370
    25
100
AcDbVertex
100
AcDb2dVertex
 10
67.80968691507202
 20
119.9352217772476
 30
0.0
  0
SEQEND
  5
1D1
330
1CE
100
AcDbEntity
  8
Layer 1
370
    25
  0
POLYLINE
  5
1D2
330
B5
100
AcDbEntity
  8
Layer 1
 62
     7
420
 16777215
370
    25
100
AcDb2dPolyline
 66
     1
 10
0.0
 20
0.0
 30
0.0
  0
VERTEX
  5
1D3
330
1D2
100
AcDbEntity
  8
Layer 1
 62
     7
420
 16777215
370
    25
100
AcDbVertex
100
AcDb2dVertex
 10
67.62502967524527
 20
122.5579747003839
 30
0.0
  0
VERTEX
  5
1D4
330
1D2
100
AcDbEntity
  8
Layer 1
 62
     7
420
 16777215
370
    25
100
AcDbVertex
100
AcDb2dVertex
 10
67.68256280780324
 20
121.0893295261648
 30
0.0
  0
VERTEX
  5
1D5
330
1D2
100
AcDbEntity
  8
Layer 1
 62
     7
420
 16777215
370
    25
100
AcDbVertex
100
AcDb2dVertex
 10
67.71098486430641
 20
120.7654903369164
 30
0.0
  0
SEQEND
  5
1D6
330
1D2
100
AcDbEntity
  8
Layer 1
370
    25
  0
POLYLINE
  5
1D7
330
B5
100
AcDbEntity
  8
Layer 1
 62
     7
420
 16777215
370
    25
100
AcDb2dPolyline
 66
     1
 10
0.0
 20
0.0
 30
0.0
  0
VERTEX
  5
1D8
330
1D7
100
AcDbEntity
  8
Layer 1
 62
     7
420
 16777215
370
    25
100
AcDbVertex
100
AcDb2dVertex
 10
65.12905634960202
 20
155.0039053848671
 30
0.0
  0
VERTEX
  5
1D9
330
1D7
100
AcDbEntity
  8
Layer 1
 62
     7
420
 16777215
370
    25
100
AcDbVertex
100
AcDb2dVertex
 10
65.12905634960202
 20
95.72755336137826
 30
0.0
  0
SEQEND
  5
1DA
330
1D7
100
AcDbEntity
  8
Layer 1
370
    25
  0
POLYLINE
  5
1DB
330
B5
100
AcDbEntity
  8
Layer 1
 62
   253
420
 10066329
370
    25
100
AcDb2dPolyline
 66
     1
 10
0.0
 20
0.0
 30
0.0
  0
VERTEX
  5
1DC
330
1DB
100
AcDbEntity
  8
Layer 1
 62
   253
420
 10066329
370
    25
100
AcDbVertex
100
AcDb2dVertex
 10
67.62502967524527
 20
122.5579747003839
 30
0.0
  0
VERTEX
  5
1DD
330
1DB
100
AcDbEntity
  8
Layer 1
 62
   253
420
 10066329
370
    25
100
AcDbVertex
100
AcDb2dVertex
 10
69.24405336659936
 20
122.7708817418259
 30
0.0
  0
SEQEND
  5
1DE
330
1DB
100
AcDbEntity
  8
Layer 1
370
    25
  0
POLYLINE
  5
1DF
330
B5
100
AcDbEntity
  8
Layer 1
 62
   253
420
 10066329
370
    25
100
AcDb2dPolyline
 66
     1
 10
0.0
 20
0.0
 30
0.0
  0
VERTEX
  5
1E0
330
1DF
100
AcDbEntity
  8
Layer 1
 62
   253
420
 10066329
370
    25
100
AcDbVertex
100
AcDb2dVertex
 10
69.24405336659936
 20
122.7708817418259
 30
0.0
  0
VERTEX
  5
1E1
330
1DF
100
AcDbEntity
  8
Layer 1
 62
   253
420
 10066329
370
    25
100
AcDbVertex
100
AcDb2dVertex
 10
70.76661432073054
 20
122.9689748629087
 30
0.0
  0
SEQEND
  5
1E2
330
1DF
100
AcDbEntity
  8
Layer 1
370
    25
  0
POLYLINE
  5
1E3
330
B5
100
AcDbEntity
  8
Layer 1
 62
   253
420
 10066329
370
    25
100
AcDb2dPolyline
 66
     1
 10
0.0
 20
0.0
 30
0.0
  0
VERTEX
  5
1E4
330
1E3
100
AcDbEntity
  8
Layer 1
 62
   253
420
 10066329
370
    25
100
AcDbVertex
100
AcDb2dVertex
 10
70.76661432073054
 20
122.9689748629087
 30
0.0
  0
VERTEX
  5
1E5
330
1E3
100
AcDbEntity
  8
Layer 1
 62
   253
420
 10066329
370
    25
100
AcDbVertex
100
AcDb2dVertex
 10
72.74978484510117
 20
123.2246011165495
 30
0.0
  0
SEQEND
  5
1E6
330
1E3
100
AcDbEntity
  8
Layer 1
370
    25
  0
POLYLINE
  5
1E7
330
B5
100
AcDbEntity
  8
Layer 1
 62
   253
420
 10066329
370
    25
100
AcDb2dPolyline
 66
     1
 10
0.0
 20
0.0
 30
0.0
  0
VERTEX
  5
1E8
330
1E7
100
AcDbEntity
  8
Layer 1
 62
   253
420
 10066329
370
    25
100
AcDbVertex
100
AcDb2dVertex
 10
77.9191540309227
 20
123.8808922394412
 30
0.0
  0
VERTEX
  5
1E9
330
1E7
100
AcDbEntity
  8
Layer 1
 62
   253
420
 10066329
370
    25
100
AcDbVertex
100
AcDb2dVertex
 10
79.23552588423985
 20
124.0490130100297
 30
0.0
  0
VERTEX
  5
1EA
330
1E7
100
AcDbEntity
  8
Layer 1
 62
   253
420
 10066329
370
    25
100
AcDbVertex
100
AcDb2dVertex
 10
80.36775726239397
 20
124.1964631940705
 30
0.0
  0
VERTEX
  5
1EB
330
1E7
100
AcDbEntity
  8
Layer 1
 62
   253
420
 10066329
370
    25
100
AcDbVertex
100
AcDb2dVertex
 10
81.30516836233534
 20
124.3225537720119
 30
0.0
  0
VERTEX
  5
1EC
330
1E7
100
AcDbEntity
  8
Layer 1
 62
   253
420
 10066329
370
    25
100
AcDbVertex
100
AcDb2dVertex
 10
82.0906506511506
 20
124.433830429594
 30
0.0
  0
VERTEX
  5
1ED
330
1E7
100
AcDbEntity
  8
Layer 1
 62
   253
420
 10066329
370
    25
100
AcDbVertex
100
AcDb2dVertex
 10
82.77605285009709
 20
124.5378723818845
 30
0.0
  0
VERTEX
  5
1EE
330
1E7
100
AcDbEntity
  8
Layer 1
 62
   253
420
 10066329
370
    25
100
AcDbVertex
100
AcDb2dVertex
 10
83.41184564132891
 20
124.6436368830539
 30
0.0
  0
VERTEX
  5
1EF
330
1E7
100
AcDbEntity
  8
Layer 1
 62
   253
420
 10066329
370
    25
100
AcDbVertex
100
AcDb2dVertex
 10
84.07606048906392
 20
124.7652488339099
 30
0.0
  0
VERTEX
  5
1F0
330
1E7
100
AcDbEntity
  8
Layer 1
 62
   253
420
 10066329
370
    25
100
AcDbVertex
100
AcDb2dVertex
 10
84.8157229776983
 20
124.9151105863813
 30
0.0
  0
VERTEX
  5
1F1
330
1E7
100
AcDbEntity
  8
Layer 1
 62
   253
420
 10066329
370
    25
100
AcDbVertex
100
AcDb2dVertex
 10
85.62842153880146
 20
125.0949446893469
 30
0.0
  0
VERTEX
  5
1F2
330
1E7
100
AcDbEntity
  8
Layer 1
 62
   253
420
 10066329
370
    25
100
AcDbVertex
100
AcDb2dVertex
 10
86.48676764519762
 20
125.3002725157214
 30
0.0
  0
VERTEX
  5
1F3
330
1E7
100
AcDbEntity
  8
Layer 1
 62
   253
420
 10066329
370
    25
100
AcDbVertex
100
AcDb2dVertex
 10
87.34735306513645
 20
125.5235148504373
 30
0.0
  0
VERTEX
  5
1F4
330
1E7
100
AcDbEntity
  8
Layer 1
 62
   253
420
 10066329
370
    25
100
AcDbVertex
100
AcDb2dVertex
 10
88.15074986229311
 20
125.7412450287405
 30
0.0
  0
VERTEX
  5
1F5
330
1E7
100
AcDbEntity
  8
Layer 1
 62
   253
420
 10066329
370
    25
100
AcDbVertex
100
AcDb2dVertex
 10
88.88197186142048
 20
125.9513959919761
 30
0.0
  0
VERTEX
  5
1F6
330
1E7
100
AcDbEntity
  8
Layer 1
 62
   253
420
 10066329
370
    25
100
AcDbVertex
100
AcDb2dVertex
 10
89.55169886556823
 20
126.1498336228347
 30
0.0
  0
VERTEX
  5
1F7
330
1E7
100
AcDbEntity
  8
Layer 1
 62
   253
420
 10066329
370
    25
100
AcDbVertex
100
AcDb2dVertex
 10
90.16992165823446
 20
126.3389694897468
 30
0.0
  0
VERTEX
  5
1F8
330
1E7
100
AcDbEntity
  8
Layer 1
 62
   253
420
 10066329
370
    25
100
AcDbVertex
100
AcDb2dVertex
 10
90.74680327780514
 20
126.5208706513672
 30
0.0
  0
VERTEX
  5
1F9
330
1E7
100
AcDbEntity
  8
Layer 1
 62
   253
420
 10066329
370
    25
100
AcDbVertex
100
AcDb2dVertex
 10
91.29491833109685
 20
126.6976041663506
 30
0.0
  0
VERTEX
  5
1FA
330
1E7
100
AcDbEntity
  8
Layer 1
 62
   253
420
 10066329
370
    25
100
AcDbVertex
100
AcDb2dVertex
 10
91.82718593470193
 20
126.8736486617825
 30
0.0
  0
VERTEX
  5
1FB
330
1E7
100
AcDbEntity
  8
Layer 1
 62
   253
420
 10066329
370
    25
100
AcDbVertex
100
AcDb2dVertex
 10
92.35600844054905
 20
127.0517602158691
 30
0.0
  0
VERTEX
  5
1FC
330
1E7
100
AcDbEntity
  8
Layer 1
 62
   253
420
 10066329
370
    25
100
AcDbVertex
100
AcDb2dVertex
 10
92.89568300433375
 20
127.2371064752474
 30
0.0
  0
SEQEND
  5
1FD
330
1E7
100
AcDbEntity
  8
Layer 1
370
    25
  0
POLYLINE
  5
1FE
330
B5
100
AcDbEntity
  8
Layer 1
 62
   253
420
 10066329
370
    25
100
AcDb2dPolyline
 66
     1
 10
0.0
 20
0.0
 30
0.0
  0
VERTEX
  5
1FF
330
1FE
100
AcDbEntity
  8
Layer 1
 62
   253
420
 10066329
370
    25
100
AcDbVertex
100
AcDb2dVertex
 10
72.74978484510117
 20
123.2246011165495
 30
0.0
  0
VERTEX
  5
200
330
1FE
100
AcDbEntity
  8
Layer 1
 62
   253
420
 10066329
370
    25
100
AcDbVertex
100
AcDb2dVertex
 10
75.15377406060685
 20
123.5308703072323
 30
0.0
  0
VERTEX
  5
201
330
1FE
100
AcDbEntity
  8
Layer 1
 62
   253
420
 10066329
370
    25
100
AcDbVertex
100
AcDb2dVertex
 10
77.9191540309227
 20
123.8808922394412
 30
0.0
  0
SEQEND
  5
202
330
1FE
100
AcDbEntity
  8
Layer 1
370
    25
  0
POLYLINE
  5
203
330
B5
100
AcDbEntity
  8
Layer 1
 62
   253
420
 10066329
370
    25
100
AcDb2dPolyline
 66
     1
 10
0.0
 20
0.0
 30
0.0
  0
VERTEX
  5
204
330
203
100
AcDbEntity
  8
Layer 1
 62
   253
420
 10066329
370
    25
100
AcDbVertex
100
AcDb2dVertex
 10
98.80230311035906
 20
121.053500509482
 30
0.0
  0
VERTEX
  5
205
330
203
100
AcDbEntity
  8
Layer 1
 62
   253
420
 10066329
370
    25
100
AcDbVertex
100
AcDb2dVertex
 10
98.80953781565078
 20
121.0483328628451
 30
0.0
  0
VERTEX
  5
206
330
203
100
AcDbEntity
  8
Layer 1
 62
   253
420
 10066329
370
    25
100
AcDbVertex
100
AcDb2dVertex
 10
98.81470546228772
 20
121.0410981575533
 30
0.0
  0
SEQEND
  5
207
330
203
100
AcDbEntity
  8
Layer 1
370
    25
  0
POLYLINE
  5
208
330
B5
100
AcDbEntity
  8
Layer 1
 62
   253
420
 10066329
370
    25
100
AcDb2dPolyline
 66
     1
 10
0.0
 20
0.0
 30
0.0
  0
VERTEX
  5
209
330
208
100
AcDbEntity
  8
Layer 1
 62
   253
420
 10066329
370
    25
100
AcDbVertex
100
AcDb2dVertex
 10
98.93993476578963
 20
120.9163856187151
 30
0.0
  0
VERTEX
  5
20A
330
208
100
AcDbEntity
  8
Layer 1
 62
   253
420
 10066329
370
    25
100
AcDbVertex
100
AcDb2dVertex
 10
99.5349031485896
 20
120.3730937022846
 30
0.0
  0
VERTEX
  5
20B
330
208
100
AcDbEntity
  8
Layer 1
 62
   253
420
 10066329
370
    25
100
AcDbVertex
100
AcDb2dVertex
 10
100.0990379064558
 20
119.8614966852273
 30
0.0
  0
VERTEX
  5
20C
330
208
100
AcDbEntity
  8
Layer 1
 62
   253
420
 10066329
370
    25
100
AcDbVertex
100
AcDb2dVertex
 10
100.6693738402864
 20
119.3567898636859
 30
0.0
  0
VERTEX
  5
20D
330
208
100
AcDbEntity
  8
Layer 1
 62
   253
420
 10066329
370
    25
100
AcDbVertex
100
AcDb2dVertex
 10
101.265031242638
 20
118.8438148075254
 30
0.0
  0
VERTEX
  5
20E
330
208
100
AcDbEntity
  8
Layer 1
 62
   253
420
 10066329
370
    25
100
AcDbVertex
100
AcDb2dVertex
 10
101.9087477587131
 20
118.3084466159381
 30
0.0
  0
VERTEX
  5
20F
330
208
100
AcDbEntity
  8
Layer 1
 62
   253
420
 10066329
370
    25
100
AcDbVertex
100
AcDb2dVertex
 10
102.6198159359564
 20
117.7344933294617
 30
0.0
  0
VERTEX
  5
210
330
208
100
AcDbEntity
  8
Layer 1
 62
   253
420
 10066329
370
    25
100
AcDbVertex
100
AcDb2dVertex
 10
103.4230404782252
 20
117.1098971059433
 30
0.0
  0
VERTEX
  5
211
330
208
100
AcDbEntity
  8
Layer 1
 62
   253
420
 10066329
370
    25
100
AcDbVertex
100
AcDb2dVertex
 10
104.3446041284799
 20
116.42914578897
 30
0.0
  0
VERTEX
  5
212
330
208
100
AcDbEntity
  8
Layer 1
 62
   253
420
 10066329
370
    25
100
AcDbVertex
100
AcDb2dVertex
 10
105.3989762973041
 20
115.6870717319051
 30
0.0
  0
VERTEX
  5
213
330
208
100
AcDbEntity
  8
Layer 1
 62
   253
420
 10066329
370
    25
100
AcDbVertex
100
AcDb2dVertex
 10
106.6082056103486
 20
114.8922876791433
 30
0.0
  0
VERTEX
  5
214
330
208
100
AcDbEntity
  8
Layer 1
 62
   253
420
 10066329
370
    25
100
AcDbVertex
100
AcDb2dVertex
 10
108.0000251045652
 20
114.044449120909
 30
0.0
  0
VERTEX
  5
215
330
208
100
AcDbEntity
  8
Layer 1
 62
   253
420
 10066329
370
    25
100
AcDbVertex
100
AcDb2dVertex
 10
109.6223216387893
 20
113.1456231158568
 30
0.0
  0
VERTEX
  5
216
330
208
100
AcDbEntity
  8
Layer 1
 62
   253
420
 10066329
370
    25
100
AcDbVertex
100
AcDb2dVertex
 10
111.4726836445906
 20
112.2319831904453
 30
0.0
  0
VERTEX
  5
217
330
208
100
AcDbEntity
  8
Layer 1
 62
   253
420
 10066329
370
    25
100
AcDbVertex
100
AcDb2dVertex
 10
113.5335411234032
 20
111.3507271839587
 30
0.0
  0
VERTEX
  5
218
330
208
100
AcDbEntity
  8
Layer 1
 62
   253
420
 10066329
370
    25
100
AcDbVertex
100
AcDb2dVertex
 10
115.7342695711892
 20
110.5562876409728
 30
0.0
  0
VERTEX
  5
219
330
208
100
AcDbEntity
  8
Layer 1
 62
   253
420
 10066329
370
    25
100
AcDbVertex
100
AcDb2dVertex
 10
117.9346535091993
 20
109.906886713597
 30
0.0
  0
VERTEX
  5
21A
330
208
100
AcDbEntity
  8
Layer 1
 62
   253
420
 10066329
370
    25
100
AcDbVertex
100
AcDb2dVertex
 10
120.1346929374336
 20
109.3952896965397
 30
0.0
  0
VERTEX
  5
21B
330
208
100
AcDbEntity
  8
Layer 1
 62
   253
420
 10066329
370
    25
100
AcDbVertex
100
AcDb2dVertex
 10
122.3137172693444
 20
109.0177069822671
 30
0.0
  0
VERTEX
  5
21C
330
208
100
AcDbEntity
  8
Layer 1
 62
   253
420
 10066329
370
    25
100
AcDbVertex
100
AcDb2dVertex
 10
124.4296963122845
 20
108.769315433918
 30
0.0
  0
VERTEX
  5
21D
330
208
100
AcDbEntity
  8
Layer 1
 62
   253
420
 10066329
370
    25
100
AcDbVertex
100
AcDb2dVertex
 10
126.4392218345035
 20
108.6373681897881
 30
0.0
  0
VERTEX
  5
21E
330
208
100
AcDbEntity
  8
Layer 1
 62
   253
420
 10066329
370
    25
100
AcDbVertex
100
AcDb2dVertex
 10
128.2627120777927
 20
108.6036062317601
 30
0.0
  0
VERTEX
  5
21F
330
208
100
AcDbEntity
  8
Layer 1
 62
   253
420
 10066329
370
    25
100
AcDbVertex
100
AcDb2dVertex
 10
129.7740764642104
 20
108.6356456409091
 30
0.0
  0
VERTEX
  5
220
330
208
100
AcDbEntity
  8
Layer 1
 62
   253
420
 10066329
370
    25
100
AcDbVertex
100
AcDb2dVertex
 10
130.9571230342945
 20
108.6990354396556
 30
0.0
  0
VERTEX
  5
221
330
208
100
AcDbEntity
  8
Layer 1
 62
   253
420
 10066329
370
    25
100
AcDbVertex
100
AcDb2dVertex
 10
131.8559490393467
 20
108.7696599436938
 30
0.0
  0
VERTEX
  5
222
330
208
100
AcDbEntity
  8
Layer 1
 62
   253
420
 10066329
370
    25
100
AcDbVertex
100
AcDb2dVertex
 10
132.5346332976651
 20
108.8354613108709
 30
0.0
  0
VERTEX
  5
223
330
208
100
AcDbEntity
  8
Layer 1
 62
   253
420
 10066329
370
    25
100
AcDbVertex
100
AcDb2dVertex
 10
133.048641883153
 20
108.8929944434288
 30
0.0
  0
VERTEX
  5
224
330
208
100
AcDbEntity
  8
Layer 1
 62
   253
420
 10066329
370
    25
100
AcDbVertex
100
AcDb2dVertex
 10
133.4251910680982
 20
108.9388142436097
 30
0.0
  0
VERTEX
  5
225
330
208
100
AcDbEntity
  8
Layer 1
 62
   253
420
 10066329
370
    25
100
AcDbVertex
100
AcDb2dVertex
 10
133.695975751874
 20
108.9736097309652
 30
0.0
  0
VERTEX
  5
226
330
208
100
AcDbEntity
  8
Layer 1
 62
   253
420
 10066329
370
    25
100
AcDbVertex
100
AcDb2dVertex
 10
133.8851116187861
 20
109.0008260032531
 30
0.0
  0
VERTEX
  5
227
330
208
100
AcDbEntity
  8
Layer 1
 62
   253
420
 10066329
370
    25
100
AcDbVertex
100
AcDb2dVertex
 10
133.986742002646
 20
109.0132283551817
 30
0.0
  0
VERTEX
  5
228
330
208
100
AcDbEntity
  8
Layer 1
 62
   253
420
 10066329
370
    25
100
AcDbVertex
100
AcDb2dVertex
 10
134.023949058432
 20
109.019429531146
 30
0.0
  0
SEQEND
  5
229
330
208
100
AcDbEntity
  8
Layer 1
370
    25
  0
POLYLINE
  5
22A
330
B5
100
AcDbEntity
  8
Layer 1
 62
   253
420
 10066329
370
    25
100
AcDb2dPolyline
 66
     1
 10
0.0
 20
0.0
 30
0.0
  0
VERTEX
  5
22B
330
22A
100
AcDbEntity
  8
Layer 1
 62
   253
420
 10066329
370
    25
100
AcDbVertex
100
AcDb2dVertex
 10
98.81470546228772
 20
121.0410981575533
 30
0.0
  0
VERTEX
  5
22C
330
22A
100
AcDbEntity
  8
Layer 1
 62
   253
420
 10066329
370
    25
100
AcDbVertex
100
AcDb2dVertex
 10
98.87723398659473
 20
120.9783973783585
 30
0.0
  0
VERTEX
  5
22D
330
22A
100
AcDbEntity
  8
Layer 1
 62
   253
420
 10066329
370
    25
100
AcDbVertex
100
AcDb2dVertex
 10
98.93993476578963
 20
120.9163856187151
 30
0.0
  0
SEQEND
  5
22E
330
22A
100
AcDbEntity
  8
Layer 1
370
    25
  0
POLYLINE
  5
22F
330
B5
100
AcDbEntity
  8
Layer 1
 62
   253
420
 10066329
370
    25
100
AcDb2dPolyline
 66
     1
 10
0.0
 20
0.0
 30
0.0
  0
VERTEX
  5
230
330
22F
100
AcDbEntity
  8
Layer 1
 62
   253
420
 10066329
370
    25
100
AcDbVertex
100
AcDb2dVertex
 10
98.93993476578963
 20
120.9163856187151
 30
0.0
  0
VERTEX
  5
231
330
22F
100
AcDbEntity
  8
Layer 1
 62
   253
420
 10066329
370
    25
100
AcDbVertex
100
AcDb2dVertex
 10
99.77468195254374
 20
120.0179041234387
 30
0.0
  0
SEQEND
  5
232
330
22F
100
AcDbEntity
  8
Layer 1
370
    25
  0
POLYLINE
  5
233
330
B5
100
AcDbEntity
  8
Layer 1
 62
   253
420
 10066329
370
    25
100
AcDb2dPolyline
 66
     1
 10
0.0
 20
0.0
 30
0.0
  0
VERTEX
  5
234
330
233
100
AcDbEntity
  8
Layer 1
 62
   253
420
 10066329
370
    25
100
AcDbVertex
100
AcDb2dVertex
 10
92.89568300433375
 20
127.2371064752474
 30
0.0
  0
VERTEX
  5
235
330
233
100
AcDbEntity
  8
Layer 1
 62
   253
420
 10066329
370
    25
100
AcDbVertex
100
AcDb2dVertex
 10
94.41169827272479
 20
125.5927613153723
 30
0.0
  0
VERTEX
  5
236
330
233
100
AcDbEntity
  8
Layer 1
 62
   253
420
 10066329
370
    25
100
AcDbVertex
100
AcDb2dVertex
 10
95.90721520945596
 20
124.0118059542437
 30
0.0
  0
VERTEX
  5
237
330
233
100
AcDbEntity
  8
Layer 1
 62
   253
420
 10066329
370
    25
100
AcDbVertex
100
AcDb2dVertex
 10
97.37344881524444
 20
122.4980299993953
 30
0.0
  0
VERTEX
  5
238
330
233
100
AcDbEntity
  8
Layer 1
 62
   253
420
 10066329
370
    25
100
AcDbVertex
100
AcDb2dVertex
 10
98.80230311035906
 20
121.053500509482
 30
0.0
  0
SEQEND
  5
239
330
233
100
AcDbEntity
  8
Layer 1
370
    25
  0
POLYLINE
  5
23A
330
B5
100
AcDbEntity
  8
Layer 1
 62
   253
420
 10066329
370
    25
100
AcDb2dPolyline
 66
     1
 10
0.0
 20
0.0
 30
0.0
  0
VERTEX
  5
23B
330
23A
100
AcDbEntity
  8
Layer 1
 62
   253
420
 10066329
370
    25
100
AcDbVertex
100
AcDb2dVertex
 10
99.77468195254374
 20
120.0179041234387
 30
0.0
  0
VERTEX
  5
23C
330
23A
100
AcDbEntity
  8
Layer 1
 62
   253
420
 10066329
370
    25
100
AcDbVertex
100
AcDb2dVertex
 10
100.1717294691488
 20
119.5862333743661
 30
0.0
  0
VERTEX
  5
23D
330
23A
100
AcDbEntity
  8
Layer 1
 62
   253
420
 10066329
370
    25
100
AcDbVertex
100
AcDb2dVertex
 10
100.5684324759781
 20
119.1507730177598
 30
0.0
  0
VERTEX
  5
23E
330
23A
100
AcDbEntity
  8
Layer 1
 62
   253
420
 10066329
370
    25
100
AcDbVertex
100
AcDb2dVertex
 10
100.9771933249603
 20
118.6987761919152
 30
0.0
  0
VERTEX
  5
23F
330
23A
100
AcDbEntity
  8
Layer 1
 62
   253
420
 10066329
370
    25
100
AcDbVertex
100
AcDb2dVertex
 10
101.4055912311628
 20
118.2150844666974
 30
0.0
  0
VERTEX
  5
240
330
23A
100
AcDbEntity
  8
Layer 1
 62
   253
420
 10066329
370
    25
100
AcDbVertex
100
AcDb2dVertex
 10
101.8618944292048
 20
117.6886735292808
 30
0.0
  0
VERTEX
  5
241
330
23A
100
AcDbEntity
  8
Layer 1
 62
   253
420
 10066329
370
    25
100
AcDbVertex
100
AcDb2dVertex
 10
102.3533376243781
 20
117.1147202428044
 30
0.0
  0
VERTEX
  5
242
330
23A
100
AcDbEntity
  8
Layer 1
 62
   253
420
 10066329
370
    25
100
AcDbVertex
100
AcDb2dVertex
 10
102.8745809151577
 20
116.4818557846668
 30
0.0
  0
VERTEX
  5
243
330
23A
100
AcDbEntity
  8
Layer 1
 62
   253
420
 10066329
370
    25
100
AcDbVertex
100
AcDb2dVertex
 10
103.4256243015436
 20
115.7942142721777
 30
0.0
  0
VERTEX
  5
244
330
23A
100
AcDbEntity
  8
Layer 1
 62
   253
420
 10066329
370
    25
100
AcDbVertex
100
AcDb2dVertex
 10
104.0026781760022
 20
115.0418049218389
 30
0.0
  0
VERTEX
  5
245
330
23A
100
AcDbEntity
  8
Layer 1
 62
   253
420
 10066329
370
    25
100
AcDbVertex
100
AcDb2dVertex
 10
104.6069483227487
 20
114.2111918523943
 30
0.0
  0
VERTEX
  5
246
330
23A
100
AcDbEntity
  8
Layer 1
 62
   253
420
 10066329
370
    25
100
AcDbVertex
100
AcDb2dVertex
 10
105.2191421943385
 20
113.3154664353243
 30
0.0
  0
VERTEX
  5
247
330
23A
100
AcDbEntity
  8
Layer 1
 62
   253
420
 10066329
370
    25
100
AcDbVertex
100
AcDb2dVertex
 10
105.8165221455691
 20
112.3721986691944
 30
0.0
  0
VERTEX
  5
248
330
23A
100
AcDbEntity
  8
Layer 1
 62
   253
420
 10066329
370
    25
100
AcDbVertex
100
AcDb2dVertex
 10
106.3725609237041
 20
111.412738943602
 30
0.0
  0
VERTEX
  5
249
330
23A
100
AcDbEntity
  8
Layer 1
 62
   253
420
 10066329
370
    25
100
AcDbVertex
100
AcDb2dVertex
 10
106.8583197075767
 20
110.4922088226747
 30
0.0
  0
VERTEX
  5
24A
330
23A
100
AcDbEntity
  8
Layer 1
 62
   253
420
 10066329
370
    25
100
AcDbVertex
100
AcDb2dVertex
 10
107.2844783002365
 20
109.599239483811
 30
0.0
  0
VERTEX
  5
24B
330
23A
100
AcDbEntity
  8
Layer 1
 62
   253
420
 10066329
370
    25
100
AcDbVertex
100
AcDb2dVertex
 10
107.6575823874238
 20
108.7317638683562
 30
0.0
  0
VERTEX
  5
24C
330
23A
100
AcDbEntity
  8
Layer 1
 62
   253
420
 10066329
370
    25
100
AcDbVertex
100
AcDb2dVertex
 10
107.9810770668964
 20
107.8959831522747
 30
0.0
  0
VERTEX
  5
24D
330
23A
100
AcDbEntity
  8
Layer 1
 62
   253
420
 10066329
370
    25
100
AcDbVertex
100
AcDb2dVertex
 10
108.2590964559639
 20
107.0984430213066
 30
0.0
  0
VERTEX
  5
24E
330
23A
100
AcDbEntity
  8
Layer 1
 62
   253
420
 10066329
370
    25
100
AcDbVertex
100
AcDb2dVertex
 10
108.4906070252989
 20
106.3636036695334
 30
0.0
  0
VERTEX
  5
24F
330
23A
100
AcDbEntity
  8
Layer 1
 62
   253
420
 10066329
370
    25
100
AcDbVertex
100
AcDb2dVertex
 10
108.6700966184887
 20
105.7393519557907
 30
0.0
  0
VERTEX
  5
250
330
23A
100
AcDbEntity
  8
Layer 1
 62
   253
420
 10066329
370
    25
100
AcDbVertex
100
AcDb2dVertex
 10
108.8041109212734
 20
105.2367121929041
 30
0.0
  0
VERTEX
  5
251
330
23A
100
AcDbEntity
  8
Layer 1
 62
   253
420
 10066329
370
    25
100
AcDbVertex
100
AcDb2dVertex
 10
108.9026407171511
 20
104.8432820289449
 30
0.0
  0
VERTEX
  5
252
330
23A
100
AcDbEntity
  8
Layer 1
 62
   253
420
 10066329
370
    25
100
AcDbVertex
100
AcDb2dVertex
 10
108.9756767896199
 20
104.5380463675895
 30
0.0
  0
VERTEX
  5
253
330
23A
100
AcDbEntity
  8
Layer 1
 62
   253
420
 10066329
370
    25
100
AcDbVertex
100
AcDb2dVertex
 10
109.0301093341957
 20
104.3024016809449
 30
0.0
  0
SEQEND
  5
254
330
23A
100
AcDbEntity
  8
Layer 1
370
    25
  0
POLYLINE
  5
255
330
B5
100
AcDbEntity
  8
Layer 1
 62
     7
420
 16777215
370
    25
100
AcDb2dPolyline
 66
     1
 10
0.0
 20
0.0
 30
0.0
  0
VERTEX
  5
256
330
255
100
AcDbEntity
  8
Layer 1
 62
     7
420
 16777215
370
    25
100
AcDbVertex
100
AcDb2dVertex
 10
49.73377574371073
 20
197.2189275267143
 30
0.0
  0
VERTEX
  5
257
330
255
100
AcDbEntity
  8
Layer 1
 62
     7
420
 16777215
370
    25
100
AcDbVertex
100
AcDb2dVertex
 10
49.22269549131711
 20
198.4496887007461
 30
0.0
  0
SEQEND
  5
258
330
255
100
AcDbEntity
  8
Layer 1
370
    25
  0
POLYLINE
  5
259
330
B5
100
AcDbEntity
  8
Layer 1
 62
     7
420
 16777215
370
    25
100
AcDb2dPolyline
 66
     1
 10
0.0
 20
0.0
 30
0.0
  0
VERTEX
  5
25A
330
259
100
AcDbEntity
  8
Layer 1
 62
     7
420
 16777215
370
    25
100
AcDbVertex
100
AcDb2dVertex
 10
32.93513456611374
 20
244.7071885517856
 30
0.0
  0
VERTEX
  5
25B
330
259
100
AcDbEntity
  8
Layer 1
 62
     7
420
 16777215
370
    25
100
AcDbVertex
100
AcDb2dVertex
 10
32.42388205883223
 20
245.9379497258174
 30
0.0
  0
SEQEND
  5
25C
330
259
100
AcDbEntity
  8
Layer 1
370
    25
  0
POLYLINE
  5
25D
330
B5
100
AcDbEntity
  8
Layer 1
 62
     7
420
 16777215
370
    25
100
AcDb2dPolyline
 66
     1
 10
0.0
 20
0.0
 30
0.0
  0
VERTEX
  5
25E
330
25D
100
AcDbEntity
  8
Layer 1
 62
     7
420
 16777215
370
    25
100
AcDbVertex
100
AcDb2dVertex
 10
67.80968691507202
 20
119.9352217772476
 30
0.0
  0
VERTEX
  5
25F
330
25D
100
AcDbEntity
  8
Layer 1
 62
     7
420
 16777215
370
    25
100
AcDbVertex
100
AcDb2dVertex
 10
68.0449870919408
 20
118.6154048261725
 30
0.0
  0
VERTEX
  5
260
330
25D
100
AcDbEntity
  8
Layer 1
 62
     7
420
 16777215
370
    25
100
AcDbVertex
100
AcDb2dVertex
 10
68.37399392782613
 20
117.3155694420936
 30
0.0
  0
VERTEX
  5
261
330
25D
100
AcDbEntity
  8
Layer 1
 62
     7
420
 16777215
370
    25
100
AcDbVertex
100
AcDb2dVertex
 10
68.79515712873696
 20
116.0429503303025
 30
0.0
  0
VERTEX
  5
262
330
25D
100
AcDbEntity
  8
Layer 1
 62
     7
420
 16777215
370
    25
100
AcDbVertex
100
AcDb2dVertex
 10
69.30658189090637
 20
114.8034041569879
 30
0.0
  0
VERTEX
  5
263
330
25D
100
AcDbEntity
  8
Layer 1
 62
     7
420
 16777215
370
    25
100
AcDbVertex
100
AcDb2dVertex
 10
69.90533988124011
 20
113.6038211176657
 30
0.0
  0
VERTEX
  5
264
330
25D
100
AcDbEntity
  8
Layer 1
 62
     7
420
 16777215
370
    25
100
AcDbVertex
100
AcDb2dVertex
 10
70.58850276664391
 20
112.4504023883001
 30
0.0
  0
VERTEX
  5
265
330
25D
100
AcDbEntity
  8
Layer 1
 62
     7
420
 16777215
370
    25
100
AcDbVertex
100
AcDb2dVertex
 10
71.35245319447192
 20
111.3483156155281
 30
0.0
  0
VERTEX
  5
266
330
25D
100
AcDbEntity
  8
Layer 1
 62
     7
420
 16777215
370
    25
100
AcDbVertex
100
AcDb2dVertex
 10
72.19322930230247
 20
110.3041064850899
 30
0.0
  0
VERTEX
  5
267
330
25D
100
AcDbEntity
  8
Layer 1
 62
     7
420
 16777215
370
    25
100
AcDbVertex
100
AcDb2dVertex
 10
73.10652471793811
 20
109.3229426436225
 30
0.0
  0
VERTEX
  5
268
330
25D
100
AcDbEntity
  8
Layer 1
 62
     7
420
 16777215
370
    25
100
AcDbVertex
100
AcDb2dVertex
 10
74.0876885594056
 20
108.409302718211
 30
0.0
  0
VERTEX
  5
269
330
25D
100
AcDbEntity
  8
Layer 1
 62
     7
420
 16777215
370
    25
100
AcDbVertex
100
AcDb2dVertex
 10
75.13189768984378
 20
107.5683543554926
 30
0.0
  0
VERTEX
  5
26A
330
25D
100
AcDbEntity
  8
Layer 1
 62
     7
420
 16777215
370
    25
100
AcDbVertex
100
AcDb2dVertex
 10
76.23363995283994
 20
106.8042316727767
 30
0.0
  0
VERTEX
  5
26B
330
25D
100
AcDbEntity
  8
Layer 1
 62
     7
420
 16777215
370
    25
100
AcDbVertex
100
AcDb2dVertex
 10
77.3870586822055
 20
106.1210687873729
 30
0.0
  0
VERTEX
  5
26C
330
25D
100
AcDbEntity
  8
Layer 1
 62
     7
420
 16777215
370
    25
100
AcDbVertex
100
AcDb2dVertex
 10
78.58664172152777
 20
105.5219662872633
 30
0.0
  0
VERTEX
  5
26D
330
25D
100
AcDbEntity
  8
Layer 1
 62
     7
420
 16777215
370
    25
100
AcDbVertex
100
AcDb2dVertex
 10
79.82584338506659
 20
105.010369270206
 30
0.0
  0
VERTEX
  5
26E
330
25D
100
AcDbEntity
  8
Layer 1
 62
     7
420
 16777215
370
    25
100
AcDbVertex
100
AcDb2dVertex
 10
81.09863475174554
 20
104.5890338144073
 30
0.0
  0
VERTEX
  5
26F
330
25D
100
AcDbEntity
  8
Layer 1
 62
     7
420
 16777215
370
    25
100
AcDbVertex
100
AcDb2dVertex
 10
82.39812562604868
 20
104.2596824687462
 30
0.0
  0
VERTEX
  5
270
330
25D
100
AcDbEntity
  8
Layer 1
 62
     7
420
 16777215
370
    25
100
AcDbVertex
100
AcDb2dVertex
 10
83.71794257712381
 20
104.0240377821016
 30
0.0
  0
SEQEND
  5
271
330
25D
100
AcDbEntity
  8
Layer 1
370
    25
  0
POLYLINE
  5
272
330
B5
100
AcDbEntity
  8
Layer 1
 62
     7
420
 16777215
370
    25
100
AcDb2dPolyline
 66
     1
 10
0.0
 20
0.0
 30
0.0
  0
VERTEX
  5
273
330
272
100
AcDbEntity
  8
Layer 1
 62
     7
420
 16777215
370
    25
100
AcDbVertex
100
AcDb2dVertex
 10
67.71098486430641
 20
120.7654903369164
 30
0.0
  0
VERTEX
  5
274
330
272
100
AcDbEntity
  8
Layer 1
 62
     7
420
 16777215
370
    25
100
AcDbVertex
100
AcDb2dVertex
 10
67.8555067152529
 20
119.6299861158922
 30
0.0
  0
VERTEX
  5
275
330
272
100
AcDbEntity
  8
Layer 1
 62
     7
420
 16777215
370
    25
100
AcDbVertex
100
AcDb2dVertex
 10
68.14196659382742
 20
118.1882127041853
 30
0.0
  0
VERTEX
  5
276
330
272
100
AcDbEntity
  8
Layer 1
 62
     7
420
 16777215
370
    25
100
AcDbVertex
100
AcDb2dVertex
 10
68.54108116908728
 20
116.7733110549904
 30
0.0
  0
VERTEX
  5
277
330
272
100
AcDbEntity
  8
Layer 1
 62
     7
420
 16777215
370
    25
100
AcDbVertex
100
AcDb2dVertex
 10
69.04974985305033
 20
115.3945829322541
 30
0.0
  0
VERTEX
  5
278
330
272
100
AcDbEntity
  8
Layer 1
 62
     7
420
 16777215
370
    25
100
AcDbVertex
100
AcDb2dVertex
 10
69.66521656751019
 20
114.0599520608198
 30
0.0
  0
VERTEX
  5
279
330
272
100
AcDbEntity
  8
Layer 1
 62
     7
420
 16777215
370
    25
100
AcDbVertex
100
AcDb2dVertex
 10
70.3831749402694
 20
112.7773421655307
 30
0.0
  0
VERTEX
  5
27A
330
272
100
AcDbEntity
  8
Layer 1
 62
     7
420
 16777215
370
    25
100
AcDbVertex
100
AcDb2dVertex
 10
71.19983536379422
 20
111.5553659907816
 30
0.0
  0
VERTEX
  5
27B
330
272
100
AcDbEntity
  8
Layer 1
 62
     7
420
 16777215
370
    25
100
AcDbVertex
100
AcDb2dVertex
 10
72.11003019144769
 20
110.4012582418645
 30
0.0
  0
VERTEX
  5
27C
330
272
100
AcDbEntity
  8
Layer 1
 62
     7
420
 16777215
370
    25
100
AcDbVertex
100
AcDb2dVertex
 10
73.1073859923776
 20
109.3219091142951
 30
0.0
  0
VERTEX
  5
27D
330
272
100
AcDbEntity
  8
Layer 1
 62
     7
420
 16777215
370
    25
100
AcDbVertex
100
AcDb2dVertex
 10
74.1869073748349
 20
108.3238642938136
 30
0.0
  0
VERTEX
  5
27E
330
272
100
AcDbEntity
  8
Layer 1
 62
     7
420
 16777215
370
    25
100
AcDbVertex
100
AcDb2dVertex
 10
75.34101512375206
 20
107.4140139759359
 30
0.0
  0
VERTEX
  5
27F
330
272
100
AcDbEntity
  8
Layer 1
 62
     7
420
 16777215
370
    25
100
AcDbVertex
100
AcDb2dVertex
 10
76.56316355338897
 20
106.597525807299
 30
0.0
  0
VERTEX
  5
280
330
272
100
AcDbEntity
  8
Layer 1
 62
     7
420
 16777215
370
    25
100
AcDbVertex
100
AcDb2dVertex
 10
77.84560119379022
 20
105.879222924764
 30
0.0
  0
VERTEX
  5
281
330
272
100
AcDbEntity
  8
Layer 1
 62
     7
420
 16777215
370
    25
100
AcDbVertex
100
AcDb2dVertex
 10
79.18057657500036
 20
105.2642729749678
 30
0.0
  0
VERTEX
  5
282
330
272
100
AcDbEntity
  8
Layer 1
 62
     7
420
 16777215
370
    25
100
AcDbVertex
100
AcDb2dVertex
 10
80.55947695262454
 20
104.7554320361169
 30
0.0
  0
VERTEX
  5
283
330
272
100
AcDbEntity
  8
Layer 1
 62
     7
420
 16777215
370
    25
100
AcDbVertex
100
AcDb2dVertex
 10
81.9740340920436
 20
104.3564897157449
 30
0.0
  0
VERTEX
  5
284
330
272
100
AcDbEntity
  8
Layer 1
 62
     7
420
 16777215
370
    25
100
AcDbVertex
100
AcDb2dVertex
 10
83.41546299397477
 20
104.0695130725067
 30
0.0
  0
VERTEX
  5
285
330
272
100
AcDbEntity
  8
Layer 1
 62
     7
420
 16777215
370
    25
100
AcDbVertex
100
AcDb2dVertex
 10
84.87532316891104
 20
103.896569165057
 30
0.0
  0
SEQEND
  5
286
330
272
100
AcDbEntity
  8
Layer 1
370
    25
  0
POLYLINE
  5
287
330
B5
100
AcDbEntity
  8
Layer 1
 62
     7
420
 16777215
370
    25
100
AcDb2dPolyline
 66
     1
 10
0.0
 20
0.0
 30
0.0
  0
VERTEX
  5
288
330
287
100
AcDbEntity
  8
Layer 1
 62
     7
420
 16777215
370
    25
100
AcDbVertex
100
AcDb2dVertex
 10
67.71098486430641
 20
120.7654903369164
 30
0.0
  0
VERTEX
  5
289
330
287
100
AcDbEntity
  8
Layer 1
 62
     7
420
 16777215
370
    25
100
AcDbVertex
100
AcDb2dVertex
 10
67.80968691507202
 20
119.9352217772476
 30
0.0
  0
SEQEND
  5
28A
330
287
100
AcDbEntity
  8
Layer 1
370
    25
  0
POLYLINE
  5
28B
330
B5
100
AcDbEntity
  8
Layer 1
 62
     7
420
 16777215
370
    25
100
AcDb2dPolyline
 66
     1
 10
0.0
 20
0.0
 30
0.0
  0
VERTEX
  5
28C
330
28B
100
AcDbEntity
  8
Layer 1
 62
     7
420
 16777215
370
    25
100
AcDbVertex
100
AcDb2dVertex
 10
67.62502967524527
 20
122.5579747003839
 30
0.0
  0
VERTEX
  5
28D
330
28B
100
AcDbEntity
  8
Layer 1
 62
     7
420
 16777215
370
    25
100
AcDbVertex
100
AcDb2dVertex
 10
67.66947143632298
 20
121.2684746095788
 30
0.0
  0
SEQEND
  5
28E
330
28B
100
AcDbEntity
  8
Layer 1
370
    25
  0
POLYLINE
  5
28F
330
B5
100
AcDbEntity
  8
Layer 1
 62
     7
420
 16777215
370
    25
100
AcDb2dPolyline
 66
     1
 10
0.0
 20
0.0
 30
0.0
  0
VERTEX
  5
290
330
28F
100
AcDbEntity
  8
Layer 1
 62
     7
420
 16777215
370
    25
100
AcDbVertex
100
AcDb2dVertex
 10
67.31290381837394
 20
187.1382269771426
 30
0.0
  0
VERTEX
  5
291
330
28F
100
AcDbEntity
  8
Layer 1
 62
     7
420
 16777215
370
    25
100
AcDbVertex
100
AcDb2dVertex
 10
67.31290381837394
 20
184.6424259063873
 30
0.0
  0
SEQEND
  5
292
330
28F
100
AcDbEntity
  8
Layer 1
370
    25
  0
POLYLINE
  5
293
330
B5
100
AcDbEntity
  8
Layer 1
 62
     7
420
 16777215
370
    25
100
AcDb2dPolyline
 66
     1
 10
0.0
 20
0.0
 30
0.0
  0
VERTEX
  5
294
330
293
100
AcDbEntity
  8
Layer 1
 62
     7
420
 16777215
370
    25
100
AcDbVertex
100
AcDb2dVertex
 10
69.83161478921973
 20
189.8465905795642
 30
0.0
  0
VERTEX
  5
295
330
293
100
AcDbEntity
  8
Layer 1
 62
     7
420
 16777215
370
    25
100
AcDbVertex
100
AcDb2dVertex
 10
69.84849576823375
 20
189.7918135252126
 30
0.0
  0
VERTEX
  5
296
330
293
100
AcDbEntity
  8
Layer 1
 62
     7
420
 16777215
370
    25
100
AcDbVertex
100
AcDb2dVertex
 10
69.86641027657514
 20
189.6898386315769
 30
0.0
  0
VERTEX
  5
297
330
293
100
AcDbEntity
  8
Layer 1
 62
     7
420
 16777215
370
    25
100
AcDbVertex
100
AcDb2dVertex
 10
69.86709929612674
 20
189.5863134439502
 30
0.0
  0
VERTEX
  5
298
330
293
100
AcDbEntity
  8
Layer 1
 62
     7
420
 16777215
370
    25
100
AcDbVertex
100
AcDb2dVertex
 10
69.85056282688852
 20
189.4843385503145
 30
0.0
  0
VERTEX
  5
299
330
293
100
AcDbEntity
  8
Layer 1
 62
     7
420
 16777215
370
    25
100
AcDbVertex
100
AcDb2dVertex
 10
69.81766214329998
 20
189.3863255191005
 30
0.0
  0
VERTEX
  5
29A
330
293
100
AcDbEntity
  8
Layer 1
 62
     7
420
 16777215
370
    25
100
AcDbVertex
100
AcDb2dVertex
 10
69.76856950024903
 20
189.2952026834024
 30
0.0
  0
VERTEX
  5
29B
330
293
100
AcDbEntity
  8
Layer 1
 62
     7
420
 16777215
370
    25
100
AcDbVertex
100
AcDb2dVertex
 10
69.70569646616623
 20
189.2133816116508
 30
0.0
  0
VERTEX
  5
29C
330
293
100
AcDbEntity
  8
Layer 1
 62
     7
420
 16777215
370
    25
100
AcDbVertex
100
AcDb2dVertex
 10
69.62955980571527
 20
189.1429293625005
 30
0.0
  0
VERTEX
  5
29D
330
293
100
AcDbEntity
  8
Layer 1
 62
     7
420
 16777215
370
    25
100
AcDbVertex
100
AcDb2dVertex
 10
69.54308785199044
 20
189.0860852494941
 30
0.0
  0
VERTEX
  5
29E
330
293
100
AcDbEntity
  8
Layer 1
 62
     7
420
 16777215
370
    25
100
AcDbVertex
100
AcDb2dVertex
 10
69.44869217342229
 20
189.0442273117349
 30
0.0
  0
VERTEX
  5
29F
330
293
100
AcDbEntity
  8
Layer 1
 62
     7
420
 16777215
370
    25
100
AcDbVertex
100
AcDb2dVertex
 10
69.3482675737777
 20
189.018733588326
 30
0.0
  0
VERTEX
  5
2A0
330
293
100
AcDbEntity
  8
Layer 1
 62
     7
420
 16777215
370
    25
100
AcDbVertex
100
AcDb2dVertex
 10
69.24508689592675
 20
189.0101208439311
 30
0.0
  0
SEQEND
  5
2A1
330
293
100
AcDbEntity
  8
Layer 1
370
    25
  0
POLYLINE
  5
2A2
330
B5
100
AcDbEntity
  8
Layer 1
 62
     7
420
 16777215
370
    25
100
AcDb2dPolyline
 66
     1
 10
0.0
 20
0.0
 30
0.0
  0
VERTEX
  5
2A3
330
2A2
100
AcDbEntity
  8
Layer 1
 62
     7
420
 16777215
370
    25
100
AcDbVertex
100
AcDb2dVertex
 10
67.62502967524527
 20
154.4990263084378
 30
0.0
  0
VERTEX
  5
2A4
330
2A2
100
AcDbEntity
  8
Layer 1
 62
     7
420
 16777215
370
    25
100
AcDbVertex
100
AcDb2dVertex
 10
116.3378506983841
 20
154.4990263084378
 30
0.0
  0
SEQEND
  5
2A5
330
2A2
100
AcDbEntity
  8
Layer 1
370
    25
  0
POLYLINE
  5
2A6
330
B5
100
AcDbEntity
  8
Layer 1
 62
     7
420
 16777215
370
    25
100
AcDb2dPolyline
 66
     1
 10
0.0
 20
0.0
 30
0.0
  0
VERTEX
  5
2A7
330
2A6
100
AcDbEntity
  8
Layer 1
 62
     7
420
 16777215
370
    25
100
AcDbVertex
100
AcDb2dVertex
 10
49.77184407393621
 20
245.2950944841818
 30
0.0
  0
VERTEX
  5
2A8
330
2A6
100
AcDbEntity
  8
Layer 1
 62
     7
420
 16777215
370
    25
100
AcDbVertex
100
AcDb2dVertex
 10
49.26076382154259
 20
246.5258556582136
 30
0.0
  0
SEQEND
  5
2A9
330
2A6
100
AcDbEntity
  8
Layer 1
370
    25
  0
POLYLINE
  5
2AA
330
B5
100
AcDbEntity
  8
Layer 1
 62
     7
420
 16777215
370
    25
100
AcDb2dPolyline
 66
     1
 10
0.0
 20
0.0
 30
0.0
  0
VERTEX
  5
2AB
330
2AA
100
AcDbEntity
  8
Layer 1
 62
     7
420
 16777215
370
    25
100
AcDbVertex
100
AcDb2dVertex
 10
92.89568300433375
 20
241.6897996804749
 30
0.0
  0
VERTEX
  5
2AC
330
2AA
100
AcDbEntity
  8
Layer 1
 62
     7
420
 16777215
370
    25
100
AcDbVertex
100
AcDb2dVertex
 10
92.89568300433375
 20
251.9963263880809
 30
0.0
  0
SEQEND
  5
2AD
330
2AA
100
AcDbEntity
  8
Layer 1
370
    25
  0
POLYLINE
  5
2AE
330
B5
100
AcDbEntity
  8
Layer 1
 62
     7
420
 16777215
370
    25
100
AcDb2dPolyline
 66
     1
 10
0.0
 20
0.0
 30
0.0
  0
VERTEX
  5
2AF
330
2AE
100
AcDbEntity
  8
Layer 1
 62
     7
420
 16777215
370
    25
100
AcDbVertex
100
AcDb2dVertex
 10
65.12905634960202
 20
155.9399384457053
 30
0.0
  0
VERTEX
  5
2B0
330
2AE
100
AcDbEntity
  8
Layer 1
 62
     7
420
 16777215
370
    25
100
AcDbVertex
100
AcDb2dVertex
 10
119.0040118532706
 20
155.9399384457053
 30
0.0
  0
SEQEND
  5
2B1
330
2AE
100
AcDbEntity
  8
Layer 1
370
    25
  0
POLYLINE
  5
2B2
330
B5
100
AcDbEntity
  8
Layer 1
 62
   253
420
 10066329
370
    25
100
AcDb2dPolyline
 66
     1
 10
0.0
 20
0.0
 30
0.0
  0
VERTEX
  5
2B3
330
2B2
100
AcDbEntity
  8
Layer 1
 62
   253
420
 10066329
370
    25
100
AcDbVertex
100
AcDb2dVertex
 10
109.0301093341957
 20
104.3024016809449
 30
0.0
  0
VERTEX
  5
2B4
330
2B2
100
AcDbEntity
  8
Layer 1
 62
   253
420
 10066329
370
    25
100
AcDbVertex
100
AcDb2dVertex
 10
109.0983222698034
 20
103.9961324902621
 30
0.0
  0
VERTEX
  5
2B5
330
2B2
100
AcDbEntity
  8
Layer 1
 62
   253
420
 10066329
370
    25
100
AcDbVertex
100
AcDb2dVertex
 10
109.1172703074722
 20
103.9075934778825
 30
0.0
  0
VERTEX
  5
2B6
330
2B2
100
AcDbEntity
  8
Layer 1
 62
   253
420
 10066329
370
    25
100
AcDbVertex
100
AcDb2dVertex
 10
109.1282946202976
 20
103.8555725017373
 30
0.0
  0
VERTEX
  5
2B7
330
2B2
100
AcDbEntity
  8
Layer 1
 62
   253
420
 10066329
370
    25
100
AcDbVertex
100
AcDb2dVertex
 10
109.1317397180556
 20
103.8390360324991
 30
0.0
  0
SEQEND
  5
2B8
330
2B2
100
AcDbEntity
  8
Layer 1
370
    25
  0
POLYLINE
  5
2B9
330
B5
100
AcDbEntity
  8
Layer 1
 62
     7
420
 16777215
370
    25
100
AcDb2dPolyline
 66
     1
 10
0.0
 20
0.0
 30
0.0
  0
VERTEX
  5
2BA
330
2B9
100
AcDbEntity
  8
Layer 1
 62
     7
420
 16777215
370
    25
100
AcDbVertex
100
AcDb2dVertex
 10
131.956890403655
 20
167.795208850403
 30
0.0
  0
VERTEX
  5
2BB
330
2B9
100
AcDbEntity
  8
Layer 1
 62
     7
420
 16777215
370
    25
100
AcDbVertex
100
AcDb2dVertex
 10
185.5550323024713
 20
167.795208850403
 30
0.0
  0
SEQEND
  5
2BC
330
2B9
100
AcDbEntity
  8
Layer 1
370
    25
  0
POLYLINE
  5
2BD
330
B5
100
AcDbEntity
  8
Layer 1
 62
     7
420
 16777215
370
    25
100
AcDb2dPolyline
 66
     1
 10
0.0
 20
0.0
 30
0.0
  0
VERTEX
  5
2BE
330
2BD
100
AcDbEntity
  8
Layer 1
 62
     7
420
 16777215
370
    25
100
AcDbVertex
100
AcDb2dVertex
 10
131.956890403655
 20
167.795208850403
 30
0.0
  0
VERTEX
  5
2BF
330
2BD
100
AcDbEntity
  8
Layer 1
 62
     7
420
 16777215
370
    25
100
AcDbVertex
100
AcDb2dVertex
 10
131.3729463336805
 20
168.0925207869151
 30
0.0
  0
VERTEX
  5
2C0
330
2BD
100
AcDbEntity
  8
Layer 1
 62
     7
420
 16777215
370
    25
100
AcDbVertex
100
AcDb2dVertex
 10
130.89028813779
 20
168.3336776299724
 30
0.0
  0
VERTEX
  5
2C1
330
2BD
100
AcDbEntity
  8
Layer 1
 62
     7
420
 16777215
370
    25
100
AcDbVertex
100
AcDb2dVertex
 10
130.51167189419
 20
168.5202296735661
 30
0.0
  0
VERTEX
  5
2C2
330
2BD
100
AcDbEntity
  8
Layer 1
 62
     7
420
 16777215
370
    25
100
AcDbVertex
100
AcDb2dVertex
 10
130.0217789930079
 20
168.758630438417
 30
0.0
  0
SEQEND
  5
2C3
330
2BD
100
AcDbEntity
  8
Layer 1
370
    25
  0
POLYLINE
  5
2C4
330
B5
100
AcDbEntity
  8
Layer 1
 62
     7
420
 16777215
370
    25
100
AcDb2dPolyline
 66
     1
 10
0.0
 20
0.0
 30
0.0
  0
VERTEX
  5
2C5
330
2C4
100
AcDbEntity
  8
Layer 1
 62
     7
420
 16777215
370
    25
100
AcDbVertex
100
AcDb2dVertex
 10
118.4782899354057
 20
187.1382269771426
 30
0.0
  0
VERTEX
  5
2C6
330
2C4
100
AcDbEntity
  8
Layer 1
 62
     7
420
 16777215
370
    25
100
AcDbVertex
100
AcDb2dVertex
 10
118.4782899354057
 20
184.6424259063873
 30
0.0
  0
SEQEND
  5
2C7
330
2C4
100
AcDbEntity
  8
Layer 1
370
    25
  0
POLYLINE
  5
2C8
330
B5
100
AcDbEntity
  8
Layer 1
 62
   253
420
 10066329
370
    25
100
AcDb2dPolyline
 66
     1
 10
0.0
 20
0.0
 30
0.0
  0
VERTEX
  5
2C9
330
2C8
100
AcDbEntity
  8
Layer 1
 62
   253
420
 10066329
370
    25
100
AcDbVertex
100
AcDb2dVertex
 10
118.4782899354057
 20
187.1382269771426
 30
0.0
  0
VERTEX
  5
2CA
330
2C8
100
AcDbEntity
  8
Layer 1
 62
   253
420
 10066329
370
    25
100
AcDbVertex
100
AcDb2dVertex
 10
67.31290381837394
 20
187.1382269771426
 30
0.0
  0
SEQEND
  5
2CB
330
2C8
100
AcDbEntity
  8
Layer 1
370
    25
  0
POLYLINE
  5
2CC
330
B5
100
AcDbEntity
  8
Layer 1
 62
     7
420
 16777215
370
    25
100
AcDb2dPolyline
 66
     1
 10
0.0
 20
0.0
 30
0.0
  0
VERTEX
  5
2CD
330
2CC
100
AcDbEntity
  8
Layer 1
 62
     7
420
 16777215
370
    25
100
AcDbVertex
100
AcDb2dVertex
 10
116.6062238137293
 20
189.0101208439311
 30
0.0
  0
VERTEX
  5
2CE
330
2CC
100
AcDbEntity
  8
Layer 1
 62
     7
420
 16777215
370
    25
100
AcDbVertex
100
AcDb2dVertex
 10
69.18479768516242
 20
189.0101208439311
 30
0.0
  0
SEQEND
  5
2CF
330
2CC
100
AcDbEntity
  8
Layer 1
370
    25
  0
POLYLINE
  5
2D0
330
B5
100
AcDbEntity
  8
Layer 1
 62
   253
420
 10066329
370
    25
100
AcDb2dPolyline
 66
     1
 10
0.0
 20
0.0
 30
0.0
  0
VERTEX
  5
2D1
330
2D0
100
AcDbEntity
  8
Layer 1
 62
   253
420
 10066329
370
    25
100
AcDbVertex
100
AcDb2dVertex
 10
103.6268180106086
 20
189.6025054034126
 30
0.0
  0
VERTEX
  5
2D2
330
2D0
100
AcDbEntity
  8
Layer 1
 62
   253
420
 10066329
370
    25
100
AcDbVertex
100
AcDb2dVertex
 10
114.8413002323255
 20
189.5825238364164
 30
0.0
  0
SEQEND
  5
2D3
330
2D0
100
AcDbEntity
  8
Layer 1
370
    25
  0
POLYLINE
  5
2D4
330
B5
100
AcDbEntity
  8
Layer 1
 62
   253
420
 10066329
370
    25
100
AcDb2dPolyline
 66
     1
 10
0.0
 20
0.0
 30
0.0
  0
VERTEX
  5
2D5
330
2D4
100
AcDbEntity
  8
Layer 1
 62
   253
420
 10066329
370
    25
100
AcDbVertex
100
AcDb2dVertex
 10
97.8185554455731
 20
189.6169748139961
 30
0.0
  0
VERTEX
  5
2D6
330
2D4
100
AcDbEntity
  8
Layer 1
 62
   253
420
 10066329
370
    25
100
AcDbVertex
100
AcDb2dVertex
 10
103.6268180106086
 20
189.6025054034126
 30
0.0
  0
SEQEND
  5
2D7
330
2D4
100
AcDbEntity
  8
Layer 1
370
    25
  0
POLYLINE
  5
2D8
330
B5
100
AcDbEntity
  8
Layer 1
 62
   253
420
 10066329
370
    25
100
AcDb2dPolyline
 66
     1
 10
0.0
 20
0.0
 30
0.0
  0
VERTEX
  5
2D9
330
2D8
100
AcDbEntity
  8
Layer 1
 62
   253
420
 10066329
370
    25
100
AcDbVertex
100
AcDb2dVertex
 10
93.14562484667387
 20
189.6319609892432
 30
0.0
  0
VERTEX
  5
2DA
330
2D8
100
AcDbEntity
  8
Layer 1
 62
   253
420
 10066329
370
    25
100
AcDbVertex
100
AcDb2dVertex
 10
97.8185554455731
 20
189.6169748139961
 30
0.0
  0
SEQEND
  5
2DB
330
2D8
100
AcDbEntity
  8
Layer 1
370
    25
  0
POLYLINE
  5
2DC
330
B5
100
AcDbEntity
  8
Layer 1
 62
   253
420
 10066329
370
    25
100
AcDb2dPolyline
 66
     1
 10
0.0
 20
0.0
 30
0.0
  0
VERTEX
  5
2DD
330
2DC
100
AcDbEntity
  8
Layer 1
 62
   253
420
 10066329
370
    25
100
AcDbVertex
100
AcDb2dVertex
 10
89.98957079060516
 20
189.6445355960597
 30
0.0
  0
VERTEX
  5
2DE
330
2DC
100
AcDbEntity
  8
Layer 1
 62
   253
420
 10066329
370
    25
100
AcDbVertex
100
AcDb2dVertex
 10
93.14562484667387
 20
189.6319609892432
 30
0.0
  0
SEQEND
  5
2DF
330
2DC
100
AcDbEntity
  8
Layer 1
370
    25
  0
POLYLINE
  5
2E0
330
B5
100
AcDbEntity
  8
Layer 1
 62
   253
420
 10066329
370
    25
100
AcDb2dPolyline
 66
     1
 10
0.0
 20
0.0
 30
0.0
  0
VERTEX
  5
2E1
330
2E0
100
AcDbEntity
  8
Layer 1
 62
   253
420
 10066329
370
    25
100
AcDbVertex
100
AcDb2dVertex
 10
86.87175731964983
 20
189.6591772615311
 30
0.0
  0
VERTEX
  5
2E2
330
2E0
100
AcDbEntity
  8
Layer 1
 62
   253
420
 10066329
370
    25
100
AcDbVertex
100
AcDb2dVertex
 10
89.98957079060516
 20
189.6445355960597
 30
0.0
  0
SEQEND
  5
2E3
330
2E0
100
AcDbEntity
  8
Layer 1
370
    25
  0
POLYLINE
  5
2E4
330
B5
100
AcDbEntity
  8
Layer 1
 62
   253
420
 10066329
370
    25
100
AcDb2dPolyline
 66
     1
 10
0.0
 20
0.0
 30
0.0
  0
VERTEX
  5
2E5
330
2E4
100
AcDbEntity
  8
Layer 1
 62
   253
420
 10066329
370
    25
100
AcDbVertex
100
AcDb2dVertex
 10
83.85195687990851
 20
189.6764027503209
 30
0.0
  0
VERTEX
  5
2E6
330
2E4
100
AcDbEntity
  8
Layer 1
 62
   253
420
 10066329
370
    25
100
AcDbVertex
100
AcDb2dVertex
 10
86.87175731964983
 20
189.6591772615311
 30
0.0
  0
SEQEND
  5
2E7
330
2E4
100
AcDbEntity
  8
Layer 1
370
    25
  0
POLYLINE
  5
2E8
330
B5
100
AcDbEntity
  8
Layer 1
 62
   253
420
 10066329
370
    25
100
AcDb2dPolyline
 66
     1
 10
0.0
 20
0.0
 30
0.0
  0
VERTEX
  5
2E9
330
2E8
100
AcDbEntity
  8
Layer 1
 62
   253
420
 10066329
370
    25
100
AcDbVertex
100
AcDb2dVertex
 10
73.07207374035849
 20
189.7849233296967
 30
0.0
  0
VERTEX
  5
2EA
330
2E8
100
AcDbEntity
  8
Layer 1
 62
   253
420
 10066329
370
    25
100
AcDbVertex
100
AcDb2dVertex
 10
73.94850660998395
 20
189.7714874484406
 30
0.0
  0
VERTEX
  5
2EB
330
2E8
100
AcDbEntity
  8
Layer 1
 62
   253
420
 10066329
370
    25
100
AcDbVertex
100
AcDb2dVertex
 10
74.92036868750495
 20
189.7580515671846
 30
0.0
  0
VERTEX
  5
2EC
330
2E8
100
AcDbEntity
  8
Layer 1
 62
   253
420
 10066329
370
    25
100
AcDbVertex
100
AcDb2dVertex
 10
75.98214781650873
 20
189.7449601957043
 30
0.0
  0
VERTEX
  5
2ED
330
2E8
100
AcDbEntity
  8
Layer 1
 62
   253
420
 10066329
370
    25
100
AcDbVertex
100
AcDb2dVertex
 10
77.1267815465915
 20
189.7318688242241
 30
0.0
  0
VERTEX
  5
2EE
330
2E8
100
AcDbEntity
  8
Layer 1
 62
   253
420
 10066329
370
    25
100
AcDbVertex
100
AcDb2dVertex
 10
78.34772419201313
 20
189.7196387271833
 30
0.0
  0
VERTEX
  5
2EF
330
2E8
100
AcDbEntity
  8
Layer 1
 62
   253
420
 10066329
370
    25
100
AcDbVertex
100
AcDb2dVertex
 10
79.63739653770608
 20
189.7077531399183
 30
0.0
  0
VERTEX
  5
2F0
330
2E8
100
AcDbEntity
  8
Layer 1
 62
   253
420
 10066329
370
    25
100
AcDbVertex
100
AcDb2dVertex
 10
80.98959740770604
 20
189.6967288270929
 30
0.0
  0
VERTEX
  5
2F1
330
2E8
100
AcDbEntity
  8
Layer 1
 62
   253
420
 10066329
370
    25
100
AcDbVertex
100
AcDb2dVertex
 10
83.85195687990851
 20
189.6764027503209
 30
0.0
  0
SEQEND
  5
2F2
330
2E8
100
AcDbEntity
  8
Layer 1
370
    25
  0
POLYLINE
  5
2F3
330
B5
100
AcDbEntity
  8
Layer 1
 62
   253
420
 10066329
370
    25
100
AcDb2dPolyline
 66
     1
 10
0.0
 20
0.0
 30
0.0
  0
VERTEX
  5
2F4
330
2F3
100
AcDbEntity
  8
Layer 1
 62
   253
420
 10066329
370
    25
100
AcDbVertex
100
AcDb2dVertex
 10
71.62220434892032
 20
189.8095557786661
 30
0.0
  0
VERTEX
  5
2F5
330
2F3
100
AcDbEntity
  8
Layer 1
 62
   253
420
 10066329
370
    25
100
AcDbVertex
100
AcDb2dVertex
 10
73.07207374035849
 20
189.7849233296967
 30
0.0
  0
SEQEND
  5
2F6
330
2F3
100
AcDbEntity
  8
Layer 1
370
    25
  0
POLYLINE
  5
2F7
330
B5
100
AcDbEntity
  8
Layer 1
 62
   253
420
 10066329
370
    25
100
AcDb2dPolyline
 66
     1
 10
0.0
 20
0.0
 30
0.0
  0
VERTEX
  5
2F8
330
2F7
100
AcDbEntity
  8
Layer 1
 62
   253
420
 10066329
370
    25
100
AcDbVertex
100
AcDb2dVertex
 10
69.83161478921973
 20
189.8465905795642
 30
0.0
  0
VERTEX
  5
2F9
330
2F7
100
AcDbEntity
  8
Layer 1
 62
   253
420
 10066329
370
    25
100
AcDbVertex
100
AcDb2dVertex
 10
71.62220434892032
 20
189.8095557786661
 30
0.0
  0
SEQEND
  5
2FA
330
2F7
100
AcDbEntity
  8
Layer 1
370
    25
  0
POLYLINE
  5
2FB
330
B5
100
AcDbEntity
  8
Layer 1
 62
     7
420
 16777215
370
    25
100
AcDb2dPolyline
 66
     1
 10
0.0
 20
0.0
 30
0.0
  0
VERTEX
  5
2FC
330
2FB
100
AcDbEntity
  8
Layer 1
 62
     7
420
 16777215
370
    25
100
AcDbVertex
100
AcDb2dVertex
 10
120.6621374041776
 20
159.2045130811497
 30
0.0
  0
VERTEX
  5
2FD
330
2FB
100
AcDbEntity
  8
Layer 1
 62
     7
420
 16777215
370
    25
100
AcDbVertex
100
AcDb2dVertex
 10
120.4688674199559
 20
158.8090158585358
 30
0.0
  0
VERTEX
  5
2FE
330
2FB
100
AcDbEntity
  8
Layer 1
 62
     7
420
 16777215
370
    25
100
AcDbVertex
100
AcDb2dVertex
 10
120.3121154719687
 20
158.490861080588
 30
0.0
  0
VERTEX
  5
2FF
330
2FB
100
AcDbEntity
  8
Layer 1
 62
     7
420
 16777215
370
    25
100
AcDbVertex
100
AcDb2dVertex
 10
120.0981749011992
 20
158.0617741548339
 30
0.0
  0
VERTEX
  5
300
330
2FB
100
AcDbEntity
  8
Layer 1
 62
     7
420
 16777215
370
    25
100
AcDbVertex
100
AcDb2dVertex
 10
119.8173994339254
 20
157.5065966511383
 30
0.0
  0
VERTEX
  5
301
330
2FB
100
AcDbEntity
  8
Layer 1
 62
     7
420
 16777215
370
    25
100
AcDbVertex
100
AcDb2dVertex
 10
119.4584202475457
 20
156.8072418062721
 30
0.0
  0
VERTEX
  5
302
330
2FB
100
AcDbEntity
  8
Layer 1
 62
     7
420
 16777215
370
    25
100
AcDbVertex
100
AcDb2dVertex
 10
119.0040118532706
 20
155.9399384457053
 30
0.0
  0
SEQEND
  5
303
330
2FB
100
AcDbEntity
  8
Layer 1
370
    25
  0
POLYLINE
  5
304
330
B5
100
AcDbEntity
  8
Layer 1
 62
     7
420
 16777215
370
    25
100
AcDb2dPolyline
 66
     1
 10
0.0
 20
0.0
 30
0.0
  0
VERTEX
  5
305
330
304
100
AcDbEntity
  8
Layer 1
 62
     7
420
 16777215
370
    25
100
AcDbVertex
100
AcDb2dVertex
 10
116.3378506983841
 20
154.4990263084378
 30
0.0
  0
VERTEX
  5
306
330
304
100
AcDbEntity
  8
Layer 1
 62
     7
420
 16777215
370
    25
100
AcDbVertex
100
AcDb2dVertex
 10
115.7135989846414
 20
153.5080439383601
 30
0.0
  0
VERTEX
  5
307
330
304
100
AcDbEntity
  8
Layer 1
 62
     7
420
 16777215
370
    25
100
AcDbVertex
100
AcDb2dVertex
 10
114.9636012027331
 20
152.352041385676
 30
0.0
  0
VERTEX
  5
308
330
304
100
AcDbEntity
  8
Layer 1
 62
     7
420
 16777215
370
    25
100
AcDbVertex
100
AcDb2dVertex
 10
114.1329881332886
 20
151.1121507025856
 30
0.0
  0
VERTEX
  5
309
330
304
100
AcDbEntity
  8
Layer 1
 62
     7
420
 16777215
370
    25
100
AcDbVertex
100
AcDb2dVertex
 10
113.2786038893141
 20
149.8762218819169
 30
0.0
  0
VERTEX
  5
30A
330
304
100
AcDbEntity
  8
Layer 1
 62
     7
420
 16777215
370
    25
100
AcDbVertex
100
AcDb2dVertex
 10
112.3384367111663
 20
148.5584719894966
 30
0.0
  0
VERTEX
  5
30B
330
304
100
AcDbEntity
  8
Layer 1
 62
     7
420
 16777215
370
    25
100
AcDbVertex
100
AcDb2dVertex
 10
111.2284262135511
 20
147.0550313279221
 30
0.0
  0
VERTEX
  5
30C
330
304
100
AcDbEntity
  8
Layer 1
 62
     7
420
 16777215
370
    25
100
AcDbVertex
100
AcDb2dVertex
 10
109.9385816129702
 20
145.3724455829336
 30
0.0
  0
VERTEX
  5
30D
330
304
100
AcDbEntity
  8
Layer 1
 62
     7
420
 16777215
370
    25
100
AcDbVertex
100
AcDb2dVertex
 10
108.4957746719359
 20
143.5617022013489
 30
0.0
  0
VERTEX
  5
30E
330
304
100
AcDbEntity
  8
Layer 1
 62
     7
420
 16777215
370
    25
100
AcDbVertex
100
AcDb2dVertex
 10
106.9410020537677
 20
141.6865354916904
 30
0.0
  0
VERTEX
  5
30F
330
304
100
AcDbEntity
  8
Layer 1
 62
     7
420
 16777215
370
    25
100
AcDbVertex
100
AcDb2dVertex
 10
105.1767674919156
 20
139.6435925212191
 30
0.0
  0
VERTEX
  5
310
330
304
100
AcDbEntity
  8
Layer 1
 62
     7
420
 16777215
370
    25
100
AcDbVertex
100
AcDb2dVertex
 10
103.2461347083538
 20
137.4983301473363
 30
0.0
  0
VERTEX
  5
311
330
304
100
AcDbEntity
  8
Layer 1
 62
     7
420
 16777215
370
    25
100
AcDbVertex
100
AcDb2dVertex
 10
101.2130102664927
 20
135.3306746380268
 30
0.0
  0
VERTEX
  5
312
330
304
100
AcDbEntity
  8
Layer 1
 62
     7
420
 16777215
370
    25
100
AcDbVertex
100
AcDb2dVertex
 10
99.14595161171574
 20
133.2115950071046
 30
0.0
  0
VERTEX
  5
313
330
304
100
AcDbEntity
  8
Layer 1
 62
     7
420
 16777215
370
    25
100
AcDbVertex
100
AcDb2dVertex
 10
97.06993570276802
 20
131.1596947824626
 30
0.0
  0
VERTEX
  5
314
330
304
100
AcDbEntity
  8
Layer 1
 62
     7
420
 16777215
370
    25
100
AcDbVertex
100
AcDb2dVertex
 10
94.98651283364069
 20
129.1704953370156
 30
0.0
  0
VERTEX
  5
315
330
304
100
AcDbEntity
  8
Layer 1
 62
     7
420
 16777215
370
    25
100
AcDbVertex
100
AcDb2dVertex
 10
92.89568300433375
 20
127.2371064752474
 30
0.0
  0
SEQEND
  5
316
330
304
100
AcDbEntity
  8
Layer 1
370
    25
  0
POLYLINE
  5
317
330
B5
100
AcDbEntity
  8
Layer 1
 62
     7
420
 16777215
370
    25
100
AcDb2dPolyline
 66
     1
 10
0.0
 20
0.0
 30
0.0
  0
VERTEX
  5
318
330
317
100
AcDbEntity
  8
Layer 1
 62
     7
420
 16777215
370
    25
100
AcDbVertex
100
AcDb2dVertex
 10
130.0217789930079
 20
199.3057954935996
 30
0.0
  0
VERTEX
  5
319
330
317
100
AcDbEntity
  8
Layer 1
 62
     7
420
 16777215
370
    25
100
AcDbVertex
100
AcDb2dVertex
 10
130.0217789930079
 20
215.1029467529571
 30
0.0
  0
SEQEND
  5
31A
330
317
100
AcDbEntity
  8
Layer 1
370
    25
  0
POLYLINE
  5
31B
330
B5
100
AcDbEntity
  8
Layer 1
 62
   253
420
 10066329
370
    25
100
AcDb2dPolyline
 66
     1
 10
0.0
 20
0.0
 30
0.0
  0
VERTEX
  5
31C
330
31B
100
AcDbEntity
  8
Layer 1
 62
   253
420
 10066329
370
    25
100
AcDbVertex
100
AcDb2dVertex
 10
86.49624166403201
 20
104.0316169971691
 30
0.0
  0
VERTEX
  5
31D
330
31B
100
AcDbEntity
  8
Layer 1
 62
   253
420
 10066329
370
    25
100
AcDbVertex
100
AcDb2dVertex
 10
86.6135472426906
 20
104.1828567887436
 30
0.0
  0
VERTEX
  5
31E
330
31B
100
AcDbEntity
  8
Layer 1
 62
   253
420
 10066329
370
    25
100
AcDbVertex
100
AcDb2dVertex
 10
86.76358125004984
 20
104.3802608902748
 30
0.0
  0
VERTEX
  5
31F
330
31B
100
AcDbEntity
  8
Layer 1
 62
   253
420
 10066329
370
    25
100
AcDbVertex
100
AcDb2dVertex
 10
86.94548241167021
 20
104.6255518506417
 30
0.0
  0
VERTEX
  5
320
330
31B
100
AcDbEntity
  8
Layer 1
 62
   253
420
 10066329
370
    25
100
AcDbVertex
100
AcDb2dVertex
 10
87.15838945311225
 20
104.9228637871538
 30
0.0
  0
VERTEX
  5
321
330
31B
100
AcDbEntity
  8
Layer 1
 62
   253
420
 10066329
370
    25
100
AcDbVertex
100
AcDb2dVertex
 10
87.40109659016065
 20
105.2766753268965
 30
0.0
  0
VERTEX
  5
322
330
31B
100
AcDbEntity
  8
Layer 1
 62
   253
420
 10066329
370
    25
100
AcDbVertex
100
AcDb2dVertex
 10
87.67291480326382
 20
105.693187645834
 30
0.0
  0
VERTEX
  5
323
330
31B
100
AcDbEntity
  8
Layer 1
 62
   253
420
 10066329
370
    25
100
AcDbVertex
100
AcDb2dVertex
 10
87.9716047788791
 20
106.1837695665678
 30
0.0
  0
VERTEX
  5
324
330
31B
100
AcDbEntity
  8
Layer 1
 62
   253
420
 10066329
370
    25
100
AcDbVertex
100
AcDb2dVertex
 10
88.29630524256699
 20
106.7611679508021
 30
0.0
  0
VERTEX
  5
325
330
31B
100
AcDbEntity
  8
Layer 1
 62
   253
420
 10066329
370
    25
100
AcDbVertex
100
AcDb2dVertex
 10
88.6458104101122
 20
107.454321619704
 30
0.0
  0
VERTEX
  5
326
330
31B
100
AcDbEntity
  8
Layer 1
 62
   253
420
 10066329
370
    25
100
AcDbVertex
100
AcDb2dVertex
 10
89.01323008599881
 20
108.2949254726467
 30
0.0
  0
VERTEX
  5
327
330
31B
100
AcDbEntity
  8
Layer 1
 62
   253
420
 10066329
370
    25
100
AcDbVertex
100
AcDb2dVertex
 10
89.35412250914914
 20
109.2316475530365
 30
0.0
  0
VERTEX
  5
328
330
31B
100
AcDbEntity
  8
Layer 1
 62
   253
420
 10066329
370
    25
100
AcDbVertex
100
AcDb2dVertex
 10
89.64695581857588
 20
110.2331374712759
 30
0.0
  0
VERTEX
  5
329
330
31B
100
AcDbEntity
  8
Layer 1
 62
   253
420
 10066329
370
    25
100
AcDbVertex
100
AcDb2dVertex
 10
89.88949070073637
 20
111.2890599340912
 30
0.0
  0
VERTEX
  5
32A
330
31B
100
AcDbEntity
  8
Layer 1
 62
   253
420
 10066329
370
    25
100
AcDbVertex
100
AcDb2dVertex
 10
90.09309597823191
 20
112.4231861160122
 30
0.0
  0
VERTEX
  5
32B
330
31B
100
AcDbEntity
  8
Layer 1
 62
   253
420
 10066329
370
    25
100
AcDbVertex
100
AcDb2dVertex
 10
90.27155204209433
 20
113.6558420938109
 30
0.0
  0
VERTEX
  5
32C
330
31B
100
AcDbEntity
  8
Layer 1
 62
   253
420
 10066329
370
    25
100
AcDbVertex
100
AcDb2dVertex
 10
90.43691673447648
 20
114.9646347320605
 30
0.0
  0
VERTEX
  5
32D
330
31B
100
AcDbEntity
  8
Layer 1
 62
   253
420
 10066329
370
    25
100
AcDbVertex
100
AcDb2dVertex
 10
90.60951613215038
 20
116.3495640307611
 30
0.0
  0
VERTEX
  5
32E
330
31B
100
AcDbEntity
  8
Layer 1
 62
   253
420
 10066329
370
    25
100
AcDbVertex
100
AcDb2dVertex
 10
90.80192484193253
 20
117.7617096017496
 30
0.0
  0
VERTEX
  5
32F
330
31B
100
AcDbEntity
  8
Layer 1
 62
   253
420
 10066329
370
    25
100
AcDbVertex
100
AcDb2dVertex
 10
91.0119035502803
 20
119.1194226281623
 30
0.0
  0
VERTEX
  5
330
330
31B
100
AcDbEntity
  8
Layer 1
 62
   253
420
 10066329
370
    25
100
AcDbVertex
100
AcDb2dVertex
 10
91.23359559100513
 20
120.3789503684731
 30
0.0
  0
VERTEX
  5
331
330
31B
100
AcDbEntity
  8
Layer 1
 62
   253
420
 10066329
370
    25
100
AcDbVertex
100
AcDb2dVertex
 10
91.45787145504843
 20
121.5116985112909
 30
0.0
  0
VERTEX
  5
332
330
31B
100
AcDbEntity
  8
Layer 1
 62
   253
420
 10066329
370
    25
100
AcDbVertex
100
AcDb2dVertex
 10
91.66492183030194
 20
122.4763258835202
 30
0.0
  0
VERTEX
  5
333
330
31B
100
AcDbEntity
  8
Layer 1
 62
   253
420
 10066329
370
    25
100
AcDbVertex
100
AcDb2dVertex
 10
91.85543573631722
 20
123.3010822867762
 30
0.0
  0
VERTEX
  5
334
330
31B
100
AcDbEntity
  8
Layer 1
 62
   253
420
 10066329
370
    25
100
AcDbVertex
100
AcDb2dVertex
 10
92.0283796437669
 20
124.0173181106564
 30
0.0
  0
VERTEX
  5
335
330
31B
100
AcDbEntity
  8
Layer 1
 62
   253
420
 10066329
370
    25
100
AcDbVertex
100
AcDb2dVertex
 10
92.1887489444
 20
124.6515606078972
 30
0.0
  0
VERTEX
  5
336
330
31B
100
AcDbEntity
  8
Layer 1
 62
   253
420
 10066329
370
    25
100
AcDbVertex
100
AcDb2dVertex
 10
92.33843844198344
 20
125.2255138943736
 30
0.0
  0
VERTEX
  5
337
330
31B
100
AcDbEntity
  8
Layer 1
 62
   253
420
 10066329
370
    25
100
AcDbVertex
100
AcDb2dVertex
 10
92.48072097938726
 20
125.7560589490997
 30
0.0
  0
VERTEX
  5
338
330
31B
100
AcDbEntity
  8
Layer 1
 62
   253
420
 10066329
370
    25
100
AcDbVertex
100
AcDb2dVertex
 10
92.61852488970572
 20
126.2583542022105
 30
0.0
  0
VERTEX
  5
339
330
31B
100
AcDbEntity
  8
Layer 1
 62
   253
420
 10066329
370
    25
100
AcDbVertex
100
AcDb2dVertex
 10
92.7556397804726
 20
126.7475580838411
 30
0.0
  0
VERTEX
  5
33A
330
31B
100
AcDbEntity
  8
Layer 1
 62
   253
420
 10066329
370
    25
100
AcDbVertex
100
AcDb2dVertex
 10
92.89568300433375
 20
127.2371064752474
 30
0.0
  0
SEQEND
  5
33B
330
31B
100
AcDbEntity
  8
Layer 1
370
    25
  0
POLYLINE
  5
33C
330
B5
100
AcDbEntity
  8
Layer 1
 62
   253
420
 10066329
370
    25
100
AcDb2dPolyline
 66
     1
 10
0.0
 20
0.0
 30
0.0
  0
VERTEX
  5
33D
330
33C
100
AcDbEntity
  8
Layer 1
 62
   253
420
 10066329
370
    25
100
AcDbVertex
100
AcDb2dVertex
 10
86.3439683431301
 20
103.8390360324991
 30
0.0
  0
VERTEX
  5
33E
330
33C
100
AcDbEntity
  8
Layer 1
 62
   253
420
 10066329
370
    25
100
AcDbVertex
100
AcDb2dVertex
 10
86.3611938319199
 20
103.8607401483742
 30
0.0
  0
VERTEX
  5
33F
330
33C
100
AcDbEntity
  8
Layer 1
 62
   253
420
 10066329
370
    25
100
AcDbVertex
100
AcDb2dVertex
 10
86.49624166403201
 20
104.0316169971691
 30
0.0
  0
SEQEND
  5
340
330
33C
100
AcDbEntity
  8
Layer 1
370
    25
  0
POLYLINE
  5
341
330
B5
100
AcDbEntity
  8
Layer 1
 62
     7
420
 16777215
370
    25
100
AcDb2dPolyline
 66
     1
 10
0.0
 20
0.0
 30
0.0
  0
VERTEX
  5
342
330
341
100
AcDbEntity
  8
Layer 1
 62
     7
420
 16777215
370
    25
100
AcDbVertex
100
AcDb2dVertex
 10
119.0040118532706
 20
155.9399384457053
 30
0.0
  0
VERTEX
  5
343
330
341
100
AcDbEntity
  8
Layer 1
 62
     7
420
 16777215
370
    25
100
AcDbVertex
100
AcDb2dVertex
 10
118.0796921248095
 20
155.4295472128632
 30
0.0
  0
VERTEX
  5
344
330
341
100
AcDbEntity
  8
Layer 1
 62
     7
420
 16777215
370
    25
100
AcDbVertex
100
AcDb2dVertex
 10
117.1901678837038
 20
154.9494728402913
 30
0.0
  0
VERTEX
  5
345
330
341
100
AcDbEntity
  8
Layer 1
 62
     7
420
 16777215
370
    25
100
AcDbVertex
100
AcDb2dVertex
 10
116.3378506983841
 20
154.4990263084378
 30
0.0
  0
SEQEND
  5
346
330
341
100
AcDbEntity
  8
Layer 1
370
    25
  0
POLYLINE
  5
347
330
B5
100
AcDbEntity
  8
Layer 1
 62
     7
420
 16777215
370
    25
100
AcDb2dPolyline
 66
     1
 10
0.0
 20
0.0
 30
0.0
  0
VERTEX
  5
348
330
347
100
AcDbEntity
  8
Layer 1
 62
     7
420
 16777215
370
    25
100
AcDbVertex
100
AcDb2dVertex
 10
50.98107338698076
 20
197.2625080133525
 30
0.0
  0
VERTEX
  5
349
330
347
100
AcDbEntity
  8
Layer 1
 62
     7
420
 16777215
370
    25
100
AcDbVertex
100
AcDb2dVertex
 10
49.73377574371073
 20
197.2189275267143
 30
0.0
  0
SEQEND
  5
34A
330
347
100
AcDbEntity
  8
Layer 1
370
    25
  0
POLYLINE
  5
34B
330
B5
100
AcDbEntity
  8
Layer 1
 62
     7
420
 16777215
370
    25
100
AcDb2dPolyline
 66
     1
 10
0.0
 20
0.0
 30
0.0
  0
VERTEX
  5
34C
330
34B
100
AcDbEntity
  8
Layer 1
 62
     7
420
 16777215
370
    25
100
AcDbVertex
100
AcDb2dVertex
 10
34.1441916242704
 20
196.6746020809564
 30
0.0
  0
VERTEX
  5
34D
330
34B
100
AcDbEntity
  8
Layer 1
 62
     7
420
 16777215
370
    25
100
AcDbVertex
100
AcDb2dVertex
 10
32.89723849077616
 20
196.6310215943182
 30
0.0
  0
SEQEND
  5
34E
330
34B
100
AcDbEntity
  8
Layer 1
370
    25
  0
POLYLINE
  5
34F
330
B5
100
AcDbEntity
  8
Layer 1
 62
     7
420
 16777215
370
    25
100
AcDb2dPolyline
 66
     1
 10
0.0
 20
0.0
 30
0.0
  0
VERTEX
  5
350
330
34F
100
AcDbEntity
  8
Layer 1
 62
     7
420
 16777215
370
    25
100
AcDbVertex
100
AcDb2dVertex
 10
29.42371867631129
 20
197.7582575807232
 30
0.0
  0
VERTEX
  5
351
330
34F
100
AcDbEntity
  8
Layer 1
 62
     7
420
 16777215
370
    25
100
AcDbVertex
100
AcDb2dVertex
 10
21.43212540716756
 20
197.4793769172162
 30
0.0
  0
SEQEND
  5
352
330
34F
100
AcDbEntity
  8
Layer 1
370
    25
  0
POLYLINE
  5
353
330
B5
100
AcDbEntity
  8
Layer 1
 62
     7
420
 16777215
370
    25
100
AcDb2dPolyline
 66
     1
 10
0.0
 20
0.0
 30
0.0
  0
VERTEX
  5
354
330
353
100
AcDbEntity
  8
Layer 1
 62
     7
420
 16777215
370
    25
100
AcDbVertex
100
AcDb2dVertex
 10
186.4910653633095
 20
198.3697624327614
 30
0.0
  0
VERTEX
  5
355
330
353
100
AcDbEntity
  8
Layer 1
 62
     7
420
 16777215
370
    25
100
AcDbVertex
100
AcDb2dVertex
 10
198.6581171151028
 20
198.3697624327614
 30
0.0
  0
SEQEND
  5
356
330
353
100
AcDbEntity
  8
Layer 1
370
    25
  0
POLYLINE
  5
357
330
B5
100
AcDbEntity
  8
Layer 1
 62
     7
420
 16777215
370
    25
100
AcDb2dPolyline
 66
     1
 10
0.0
 20
0.0
 30
0.0
  0
VERTEX
  5
358
330
357
100
AcDbEntity
  8
Layer 1
 62
     7
420
 16777215
370
    25
100
AcDbVertex
100
AcDb2dVertex
 10
185.5550323024713
 20
213.2312251410565
 30
0.0
  0
VERTEX
  5
359
330
357
100
AcDbEntity
  8
Layer 1
 62
     7
420
 16777215
370
    25
100
AcDbVertex
100
AcDb2dVertex
 10
159.8473683227854
 20
213.2312251410565
 30
0.0
  0
SEQEND
  5
35A
330
357
100
AcDbEntity
  8
Layer 1
370
    25
  0
POLYLINE
  5
35B
330
B5
100
AcDbEntity
  8
Layer 1
 62
     7
420
 16777215
370
    25
100
AcDb2dPolyline
 66
     1
 10
0.0
 20
0.0
 30
0.0
  0
VERTEX
  5
35C
330
35B
100
AcDbEntity
  8
Layer 1
 62
     7
420
 16777215
370
    25
100
AcDbVertex
100
AcDb2dVertex
 10
130.0217789930079
 20
213.2312251410565
 30
0.0
  0
VERTEX
  5
35D
330
35B
100
AcDbEntity
  8
Layer 1
 62
     7
420
 16777215
370
    25
100
AcDbVertex
100
AcDb2dVertex
 10
155.7294429726938
 20
213.2312251410565
 30
0.0
  0
SEQEND
  5
35E
330
35B
100
AcDbEntity
  8
Layer 1
370
    25
  0
POLYLINE
  5
35F
330
B5
100
AcDbEntity
  8
Layer 1
 62
     7
420
 16777215
370
    25
100
AcDb2dPolyline
 66
     1
 10
0.0
 20
0.0
 30
0.0
  0
VERTEX
  5
360
330
35F
100
AcDbEntity
  8
Layer 1
 62
     7
420
 16777215
370
    25
100
AcDbVertex
100
AcDb2dVertex
 10
110.770572721518
 20
224.0123140648219
 30
0.0
  0
VERTEX
  5
361
330
35F
100
AcDbEntity
  8
Layer 1
 62
     7
420
 16777215
370
    25
100
AcDbVertex
100
AcDb2dVertex
 10
121.4865492976578
 20
224.3864516813365
 30
0.0
  0
SEQEND
  5
362
330
35F
100
AcDbEntity
  8
Layer 1
370
    25
  0
POLYLINE
  5
363
330
B5
100
AcDbEntity
  8
Layer 1
 62
     7
420
 16777215
370
    25
100
AcDb2dPolyline
 66
     1
 10
0.0
 20
0.0
 30
0.0
  0
VERTEX
  5
364
330
363
100
AcDbEntity
  8
Layer 1
 62
     7
420
 16777215
370
    25
100
AcDbVertex
100
AcDb2dVertex
 10
133.1296016804651
 20
108.6380572093397
 30
0.0
  0
VERTEX
  5
365
330
363
100
AcDbEntity
  8
Layer 1
 62
     7
420
 16777215
370
    25
100
AcDbVertex
100
AcDb2dVertex
 10
134.023949058432
 20
109.019429531146
 30
0.0
  0
SEQEND
  5
366
330
363
100
AcDbEntity
  8
Layer 1
370
    25
  0
POLYLINE
  5
367
330
B5
100
AcDbEntity
  8
Layer 1
 62
     7
420
 16777215
370
    25
100
AcDb2dPolyline
 66
     1
 10
0.0
 20
0.0
 30
0.0
  0
VERTEX
  5
368
330
367
100
AcDbEntity
  8
Layer 1
 62
     7
420
 16777215
370
    25
100
AcDbVertex
100
AcDb2dVertex
 10
132.1350019577416
 20
108.2339472423308
 30
0.0
  0
VERTEX
  5
369
330
367
100
AcDbEntity
  8
Layer 1
 62
     7
420
 16777215
370
    25
100
AcDbVertex
100
AcDb2dVertex
 10
133.1296016804651
 20
108.6380572093397
 30
0.0
  0
SEQEND
  5
36A
330
367
100
AcDbEntity
  8
Layer 1
370
    25
  0
POLYLINE
  5
36B
330
B5
100
AcDbEntity
  8
Layer 1
 62
     7
420
 16777215
370
    25
100
AcDb2dPolyline
 66
     1
 10
0.0
 20
0.0
 30
0.0
  0
VERTEX
  5
36C
330
36B
100
AcDbEntity
  8
Layer 1
 62
     7
420
 16777215
370
    25
100
AcDbVertex
100
AcDb2dVertex
 10
131.093204395734
 20
107.8315598242009
 30
0.0
  0
VERTEX
  5
36D
330
36B
100
AcDbEntity
  8
Layer 1
 62
     7
420
 16777215
370
    25
100
AcDbVertex
100
AcDb2dVertex
 10
133.1296016804651
 20
108.6380572093397
 30
0.0
  0
SEQEND
  5
36E
330
36B
100
AcDbEntity
  8
Layer 1
370
    25
  0
POLYLINE
  5
36F
330
B5
100
AcDbEntity
  8
Layer 1
 62
     7
420
 16777215
370
    25
100
AcDb2dPolyline
 66
     1
 10
0.0
 20
0.0
 30
0.0
  0
VERTEX
  5
370
330
36F
100
AcDbEntity
  8
Layer 1
 62
     7
420
 16777215
370
    25
100
AcDbVertex
100
AcDb2dVertex
 10
131.093204395734
 20
107.8315598242009
 30
0.0
  0
VERTEX
  5
371
330
36F
100
AcDbEntity
  8
Layer 1
 62
     7
420
 16777215
370
    25
100
AcDbVertex
100
AcDb2dVertex
 10
132.1350019577416
 20
108.2339472423308
 30
0.0
  0
SEQEND
  5
372
330
36F
100
AcDbEntity
  8
Layer 1
370
    25
  0
POLYLINE
  5
373
330
B5
100
AcDbEntity
  8
Layer 1
 62
     7
420
 16777215
370
    25
100
AcDb2dPolyline
 66
     1
 10
0.0
 20
0.0
 30
0.0
  0
VERTEX
  5
374
330
373
100
AcDbEntity
  8
Layer 1
 62
     7
420
 16777215
370
    25
100
AcDbVertex
100
AcDb2dVertex
 10
130.6288052179607
 20
107.6593049363028
 30
0.0
  0
VERTEX
  5
375
330
373
100
AcDbEntity
  8
Layer 1
 62
     7
420
 16777215
370
    25
100
AcDbVertex
100
AcDb2dVertex
 10
132.1350019577416
 20
108.2339472423308
 30
0.0
  0
SEQEND
  5
376
330
373
100
AcDbEntity
  8
Layer 1
370
    25
  0
POLYLINE
  5
377
330
B5
100
AcDbEntity
  8
Layer 1
 62
     7
420
 16777215
370
    25
100
AcDb2dPolyline
 66
     1
 10
0.0
 20
0.0
 30
0.0
  0
VERTEX
  5
378
330
377
100
AcDbEntity
  8
Layer 1
 62
     7
420
 16777215
370
    25
100
AcDbVertex
100
AcDb2dVertex
 10
27.78988106459796
 20
244.5602551324085
 30
0.0
  0
VERTEX
  5
379
330
377
100
AcDbEntity
  8
Layer 1
 62
     7
420
 16777215
370
    25
100
AcDbVertex
100
AcDb2dVertex
 10
15.62265705791677
 20
244.5602551324085
 30
0.0
  0
SEQEND
  5
37A
330
377
100
AcDbEntity
  8
Layer 1
370
    25
  0
POLYLINE
  5
37B
330
B5
100
AcDbEntity
  8
Layer 1
 62
     7
420
 16777215
370
    25
100
AcDb2dPolyline
 66
     1
 10
0.0
 20
0.0
 30
0.0
  0
VERTEX
  5
37C
330
37B
100
AcDbEntity
  8
Layer 1
 62
     7
420
 16777215
370
    25
100
AcDbVertex
100
AcDb2dVertex
 10
185.5550323024713
 20
166.8591757895648
 30
0.0
  0
VERTEX
  5
37D
330
37B
100
AcDbEntity
  8
Layer 1
 62
     7
420
 16777215
370
    25
100
AcDbVertex
100
AcDb2dVertex
 10
185.5550323024713
 20
90.73595121986756
 30
0.0
  0
SEQEND
  5
37E
330
37B
100
AcDbEntity
  8
Layer 1
370
    25
  0
POLYLINE
  5
37F
330
B5
100
AcDbEntity
  8
Layer 1
 62
     7
420
 16777215
370
    25
100
AcDb2dPolyline
 66
     1
 10
0.0
 20
0.0
 30
0.0
  0
VERTEX
  5
380
330
37F
100
AcDbEntity
  8
Layer 1
 62
     7
420
 16777215
370
    25
100
AcDbVertex
100
AcDb2dVertex
 10
185.5550323024713
 20
199.3057954935996
 30
0.0
  0
VERTEX
  5
381
330
37F
100
AcDbEntity
  8
Layer 1
 62
     7
420
 16777215
370
    25
100
AcDbVertex
100
AcDb2dVertex
 10
185.5550323024713
 20
215.1029467529571
 30
0.0
  0
SEQEND
  5
382
330
37F
100
AcDbEntity
  8
Layer 1
370
    25
  0
POLYLINE
  5
383
330
B5
100
AcDbEntity
  8
Layer 1
 62
     7
420
 16777215
370
    25
100
AcDb2dPolyline
 66
     1
 10
0.0
 20
0.0
 30
0.0
  0
VERTEX
  5
384
330
383
100
AcDbEntity
  8
Layer 1
 62
     7
420
 16777215
370
    25
100
AcDbVertex
100
AcDb2dVertex
 10
27.79057008414955
 20
244.52735444882
 30
0.0
  0
VERTEX
  5
385
330
383
100
AcDbEntity
  8
Layer 1
 62
     7
420
 16777215
370
    25
100
AcDbVertex
100
AcDb2dVertex
 10
19.79863230523003
 20
244.248473785313
 30
0.0
  0
SEQEND
  5
386
330
383
100
AcDbEntity
  8
Layer 1
370
    25
  0
POLYLINE
  5
387
330
B5
100
AcDbEntity
  8
Layer 1
 62
     7
420
 16777215
370
    25
100
AcDb2dPolyline
 66
     1
 10
0.0
 20
0.0
 30
0.0
  0
VERTEX
  5
388
330
387
100
AcDbEntity
  8
Layer 1
 62
     7
420
 16777215
370
    25
100
AcDbVertex
100
AcDb2dVertex
 10
49.26076382154259
 20
246.5258556582136
 30
0.0
  0
VERTEX
  5
389
330
387
100
AcDbEntity
  8
Layer 1
 62
     7
420
 16777215
370
    25
100
AcDbVertex
100
AcDb2dVertex
 10
48.01363843316046
 20
246.4822751715754
 30
0.0
  0
SEQEND
  5
38A
330
387
100
AcDbEntity
  8
Layer 1
370
    25
  0
POLYLINE
  5
38B
330
B5
100
AcDbEntity
  8
Layer 1
 62
     7
420
 16777215
370
    25
100
AcDb2dPolyline
 66
     1
 10
0.0
 20
0.0
 30
0.0
  0
VERTEX
  5
38C
330
38B
100
AcDbEntity
  8
Layer 1
 62
     7
420
 16777215
370
    25
100
AcDbVertex
100
AcDb2dVertex
 10
32.42388205883223
 20
245.9379497258174
 30
0.0
  0
VERTEX
  5
38D
330
38B
100
AcDbEntity
  8
Layer 1
 62
     7
420
 16777215
370
    25
100
AcDbVertex
100
AcDb2dVertex
 10
31.1767566704501
 20
245.8943692391792
 30
0.0
  0
SEQEND
  5
38E
330
38B
100
AcDbEntity
  8
Layer 1
370
    25
  0
POLYLINE
  5
38F
330
B5
100
AcDbEntity
  8
Layer 1
 62
     7
420
 16777215
370
    25
100
AcDb2dPolyline
 66
     1
 10
0.0
 20
0.0
 30
0.0
  0
VERTEX
  5
390
330
38F
100
AcDbEntity
  8
Layer 1
 62
     7
420
 16777215
370
    25
100
AcDbVertex
100
AcDb2dVertex
 10
196.7860509934264
 20
198.3697624327614
 30
0.0
  0
VERTEX
  5
391
330
38F
100
AcDbEntity
  8
Layer 1
 62
     7
420
 16777215
370
    25
100
AcDbVertex
100
AcDb2dVertex
 10
196.7860509934264
 20
152.9764653543066
 30
0.0
  0
SEQEND
  5
392
330
38F
100
AcDbEntity
  8
Layer 1
370
    25
  0
POLYLINE
  5
393
330
B5
100
AcDbEntity
  8
Layer 1
 62
     7
420
 16777215
370
    25
100
AcDb2dPolyline
 66
     1
 10
0.0
 20
0.0
 30
0.0
  0
VERTEX
  5
394
330
393
100
AcDbEntity
  8
Layer 1
 62
     7
420
 16777215
370
    25
100
AcDbVertex
100
AcDb2dVertex
 10
196.7860509934264
 20
103.8390360324991
 30
0.0
  0
VERTEX
  5
395
330
393
100
AcDbEntity
  8
Layer 1
 62
     7
420
 16777215
370
    25
100
AcDbVertex
100
AcDb2dVertex
 10
196.7860509934264
 20
149.2325053658417
 30
0.0
  0
SEQEND
  5
396
330
393
100
AcDbEntity
  8
Layer 1
370
    25
  0
SPLINE
  5
397
330
B5
100
AcDbEntity
  8
Layer 1
 62
     7
420
 16777215
370
    25
100
AcDbSpline
210
0.0
220
0.0
230
1.0
 70
     8
 71
     3
 72
     8
 73
     4
 74
     0
 42
0.0000000001
 43
0.0000000001
 40
0.0
 40
0.0
 40
0.0
 40
0.0
 40
1.0
 40
1.0
 40
1.0
 40
1.0
 10
134.023949058432
 20
109.019429531146
 30
0.0
 10
158.9140913401536
 20
119.8477162941954
 30
0.0
 10
177.4397600238168
 20
141.5228933481872
 30
0.0
 10
184.2603645650293
 20
167.795208850403
 30
0.0
  0
SPLINE
  5
398
330
B5
100
AcDbEntity
  8
Layer 1
 62
     7
420
 16777215
370
    25
100
AcDbSpline
210
0.0
220
0.0
230
1.0
 70
     8
 71
     3
 72
     8
 73
     4
 74
     0
 42
0.0000000001
 43
0.0000000001
 40
0.0
 40
0.0
 40
0.0
 40
0.0
 40
1.0
 40
1.0
 40
1.0
 40
1.0
 10
114.8413002323255
 20
189.5825238364164
 30
0.0
 10
112.2757359319714
 20
220.4220054363621
 30
0.0
 10
86.53034813183584
 20
244.1654469293461
 30
0.0
 10
55.58441301116917
 20
244.2312482965232
 30
0.0
  0
SPLINE
  5
399
330
B5
100
AcDbEntity
  8
Layer 1
 62
     7
420
 16777215
370
    25
100
AcDbSpline
210
0.0
220
0.0
230
1.0
 70
     8
 71
     3
 72
     8
 73
     4
 74
     0
 42
0.0000000001
 43
0.0000000001
 40
0.0
 40
0.0
 40
0.0
 40
0.0
 40
1.0
 40
1.0
 40
1.0
 40
1.0
 10
120.6621374041776
 20
159.2045130811497
 30
0.0
 10
124.325654359994
 20
161.8067676726261
 30
0.0
 10
127.4954888070946
 20
165.0420589771279
 30
0.0
 10
130.0217789930079
 20
168.758630438417
 30
0.0
  0
SPLINE
  5
39A
330
B5
100
AcDbEntity
  8
Layer 1
 62
     7
420
 16777215
370
    25
100
AcDbSpline
210
0.0
220
0.0
230
1.0
 70
     8
 71
     3
 72
     8
 73
     4
 74
     0
 42
0.0000000001
 43
0.0000000001
 40
0.0
 40
0.0
 40
0.0
 40
0.0
 40
1.0
 40
1.0
 40
1.0
 40
1.0
 10
119.6158612150846
 20
224.3209948239352
 30
0.0
 10
119.4050212322973
 20
230.3614569778573
 30
0.0
 10
117.1536498474694
 20
236.1521495443272
 30
0.0
 10
113.2289944815994
 20
240.7487712278876
 30
0.0
  0
SPLINE
  5
39B
330
B5
100
AcDbEntity
  8
Layer 1
 62
     7
420
 16777215
370
    25
100
AcDbSpline
210
0.0
220
0.0
230
1.0
 70
     8
 71
     3
 72
     8
 73
     4
 74
     0
 42
0.0000000001
 43
0.0000000001
 40
0.0
 40
0.0
 40
0.0
 40
0.0
 40
1.0
 40
1.0
 40
1.0
 40
1.0
 10
109.3105402916938
 20
244.4925589614646
 30
0.0
 10
104.6171113611347
 20
248.142640036025
 30
0.0
 10
98.84106046013613
 20
250.1244325212925
 30
0.0
 10
92.89568300433375
 20
250.1244325212925
 30
0.0
  0
SPLINE
  5
39C
330
B5
100
AcDbEntity
  8
Layer 1
 62
     7
420
 16777215
370
    25
100
AcDbSpline
210
0.0
220
0.0
230
1.0
 70
     8
 71
     3
 72
     8
 73
     4
 74
     0
 42
0.0000000001
 43
0.0000000001
 40
0.0
 40
0.0
 40
0.0
 40
0.0
 40
1.0
 40
1.0
 40
1.0
 40
1.0
 10
69.83161478921973
 20
189.8465905795642
 30
0.0
 10
67.84861651973698
 20
195.3239515049475
 30
0.0
 10
62.92488280405814
 20
199.1983084435512
 30
0.0
 10
57.13453474736403
 20
199.8373740776531
 30
0.0
  0
SPLINE
  5
39D
330
B5
100
AcDbEntity
  8
Layer 1
 62
     7
420
 16777215
370
    25
100
AcDbSpline
210
0.0
220
0.0
230
1.0
 70
     8
 71
     3
 72
     8
 73
     4
 74
     0
 42
0.0000000001
 43
0.0000000001
 40
0.0
 40
0.0
 40
0.0
 40
0.0
 40
1.0
 40
1.0
 40
1.0
 40
1.0
 10
118.4782899354057
 20
187.1382269771426
 30
0.0
 10
118.4782899354057
 20
188.1721008143069
 30
0.0
 10
117.6400976508936
 20
189.0101208439311
 30
0.0
 10
116.6062238137293
 20
189.0101208439311
 30
0.0
  0
SPLINE
  5
39E
330
B5
100
AcDbEntity
  8
Layer 1
 62
     7
420
 16777215
370
    25
100
AcDbSpline
210
0.0
220
0.0
230
1.0
 70
     8
 71
     3
 72
     8
 73
     4
 74
     0
 42
0.0000000001
 43
0.0000000001
 40
0.0
 40
0.0
 40
0.0
 40
0.0
 40
1.0
 40
1.0
 40
1.0
 40
1.0
 10
69.18479768516242
 20
189.0101208439311
 30
0.0
 10
68.15092384799811
 20
189.0101208439311
 30
0.0
 10
67.31290381837394
 20
188.1721008143069
 30
0.0
 10
67.31290381837394
 20
187.1382269771426
 30
0.0
  0
SPLINE
  5
39F
330
B5
100
AcDbEntity
  8
Layer 1
 62
     7
420
 16777215
370
    25
100
AcDbSpline
210
0.0
220
0.0
230
1.0
 70
     8
 71
     3
 72
     8
 73
     4
 74
     0
 42
0.0000000001
 43
0.0000000001
 40
0.0
 40
0.0
 40
0.0
 40
0.0
 40
1.0
 40
1.0
 40
1.0
 40
1.0
 10
57.15176023615384
 20
199.3510985291168
 30
0.0
 10
57.15727239256658
 20
199.1855615818467
 30
0.0
 10
57.09715543669014
 20
199.0246755165499
 30
0.0
 10
56.9845007400048
 20
198.9037525852455
 30
0.0
  0
SPLINE
  5
3A0
330
B5
100
AcDbEntity
  8
Layer 1
 62
     7
420
 16777215
370
    25
100
AcDbSpline
210
0.0
220
0.0
230
1.0
 70
     8
 71
     3
 72
     8
 73
     4
 74
     0
 42
0.0000000001
 43
0.0000000001
 40
0.0
 40
0.0
 40
0.0
 40
0.0
 40
1.0
 40
1.0
 40
1.0
 40
1.0
 10
56.9845007400048
 20
198.9037525852455
 30
0.0
 10
56.87150153354366
 20
198.7826573990531
 30
0.0
 10
56.71526635022009
 20
198.7113438754633
 30
0.0
 10
56.54990165783793
 20
198.7056594641627
 30
0.0
  0
SPLINE
  5
3A1
330
B5
100
AcDbEntity
  8
Layer 1
 62
     7
420
 16777215
370
    25
100
AcDbSpline
210
0.0
220
0.0
230
1.0
 70
     8
 71
     3
 72
     8
 73
     4
 74
     0
 42
0.0000000001
 43
0.0000000001
 40
0.0
 40
0.0
 40
0.0
 40
0.0
 40
1.0
 40
1.0
 40
1.0
 40
1.0
 10
55.56219213063032
 20
244.8728977539436
 30
0.0
 10
55.54978977870165
 20
245.2172352748518
 30
0.0
 10
55.26109058658447
 20
245.4866419195244
 30
0.0
 10
54.9165808107883
 20
245.4749285871474
 30
0.0
  0
SPLINE
  5
3A2
330
B5
100
AcDbEntity
  8
Layer 1
 62
     7
420
 16777215
370
    25
100
AcDbSpline
210
0.0
220
0.0
230
1.0
 70
     8
 71
     3
 72
     8
 73
     4
 74
     0
 42
0.0000000001
 43
0.0000000001
 40
0.0
 40
0.0
 40
0.0
 40
0.0
 40
1.0
 40
1.0
 40
1.0
 40
1.0
 10
114.8413002323255
 20
189.5825238364164
 30
0.0
 10
114.8681719948376
 20
189.2590291569438
 30
0.0
 10
115.1386121688376
 20
189.0101208439311
 30
0.0
 10
115.4631403776376
 20
189.0101208439311
 30
0.0
  0
POLYLINE
  5
3A3
330
B5
100
AcDbEntity
  8
Layer 1
 62
     7
420
 16777215
370
    25
100
AcDb2dPolyline
 66
     1
 10
0.0
 20
0.0
 30
0.0
  0
VERTEX
  5
3A4
330
3A3
100
AcDbEntity
  8
Layer 1
 62
     7
420
 16777215
370
    25
100
AcDbVertex
100
AcDb2dVertex
 10
30.35906271759789
 20
197.7911582643117
 30
0.0
  0
VERTEX
  5
3A5
330
3A3
100
AcDbEntity
  8
Layer 1
 62
     7
420
 16777215
370
    25
100
AcDbVertex
100
AcDb2dVertex
 10
28.72574187054825
 20
244.5602551324085
 30
0.0
  0
SEQEND
  5
3A6
330
3A3
100
AcDbEntity
  8
Layer 1
370
    25
  0
POLYLINE
  5
3A7
330
B5
100
AcDbEntity
  8
Layer 1
 62
     7
420
 16777215
370
    25
100
AcDb2dPolyline
 66
     1
 10
0.0
 20
0.0
 30
0.0
  0
VERTEX
  5
3A8
330
3A7
100
AcDbEntity
  8
Layer 1
 62
     7
420
 16777215
370
    25
100
AcDbVertex
100
AcDb2dVertex
 10
65.12905634960202
 20
184.6424259063873
 30
0.0
  0
VERTEX
  5
3A9
330
3A7
100
AcDbEntity
  8
Layer 1
 62
     7
420
 16777215
370
    25
100
AcDbVertex
100
AcDb2dVertex
 10
65.12905634960202
 20
155.9399384457053
 30
0.0
  0
SEQEND
  5
3AA
330
3A7
100
AcDbEntity
  8
Layer 1
370
    25
  0
POLYLINE
  5
3AB
330
B5
100
AcDbEntity
  8
Layer 1
 62
     7
420
 16777215
370
    25
100
AcDb2dPolyline
 66
     1
 10
0.0
 20
0.0
 30
0.0
  0
VERTEX
  5
3AC
330
3AB
100
AcDbEntity
  8
Layer 1
 62
     7
420
 16777215
370
    25
100
AcDbVertex
100
AcDb2dVertex
 10
67.62502967524527
 20
154.4990263084378
 30
0.0
  0
VERTEX
  5
3AD
330
3AB
100
AcDbEntity
  8
Layer 1
 62
     7
420
 16777215
370
    25
100
AcDbVertex
100
AcDb2dVertex
 10
67.62502967524527
 20
122.5579747003839
 30
0.0
  0
SEQEND
  5
3AE
330
3AB
100
AcDbEntity
  8
Layer 1
370
    25
  0
POLYLINE
  5
3AF
330
B5
100
AcDbEntity
  8
Layer 1
 62
     7
420
 16777215
370
    25
100
AcDb2dPolyline
 66
     1
 10
0.0
 20
0.0
 30
0.0
  0
VERTEX
  5
3B0
330
3AF
100
AcDbEntity
  8
Layer 1
 62
     7
420
 16777215
370
    25
100
AcDbVertex
100
AcDb2dVertex
 10
65.12905634960202
 20
155.9399384457053
 30
0.0
  0
VERTEX
  5
3B1
330
3AF
100
AcDbEntity
  8
Layer 1
 62
     7
420
 16777215
370
    25
100
AcDbVertex
100
AcDb2dVertex
 10
67.62502967524527
 20
154.4990263084378
 30
0.0
  0
SEQEND
  5
3B2
330
3AF
100
AcDbEntity
  8
Layer 1
370
    25
  0
POLYLINE
  5
3B3
330
B5
100
AcDbEntity
  8
Layer 1
  6
AI-Linetype-1
 62
     7
420
 16777215
370
    25
100
AcDb2dPolyline
 66
     1
 10
0.0
 20
0.0
 30
0.0
  0
VERTEX
  5
3B4
330
3B3
100
AcDbEntity
  8
Layer 1
  6
AI-Linetype-1
 62
     7
420
 16777215
370
    25
100
AcDbVertex
100
AcDb2dVertex
 10
92.89568300433375
 20
100.0945592793705
 30
0.0
  0
VERTEX
  5
3B5
330
3B3
100
AcDbEntity
  8
Layer 1
  6
AI-Linetype-1
 62
     7
420
 16777215
370
    25
100
AcDbVertex
100
AcDb2dVertex
 10
92.89568300433375
 20
245.5293611317232
 30
0.0
  0
SEQEND
  5
3B6
330
3B3
100
AcDbEntity
  8
Layer 1
  6
AI-Linetype-1
370
    25
  0
POLYLINE
  5
3B8
330
B5
100
AcDbEntity
  8
Layer 1
 62
     7
420
 16777215
370
    25
100
AcDb2dPolyline
 66
     1
 10
0.0
 20
0.0
 30
0.0
  0
VERTEX
  5
3B9
330
3B8
100
AcDbEntity
  8
Layer 1
 62
     7
420
 16777215
370
    25
100
AcDbVertex
100
AcDb2dVertex
 10
120.6621374041776
 20
184.6424259063873
 30
0.0
  0
VERTEX
  5
3BA
330
3B8
100
AcDbEntity
  8
Layer 1
 62
     7
420
 16777215
370
    25
100
AcDbVertex
100
AcDb2dVertex
 10
120.6621374041776
 20
159.2045130811497
 30
0.0
  0
SEQEND
  5
3BB
330
3B8
100
AcDbEntity
  8
Layer 1
370
    25
  0
POLYLINE
  5
3BC
330
B5
100
AcDbEntity
  8
Layer 1
 62
     7
420
 16777215
370
    25
100
AcDb2dPolyline
 66
     1
 10
0.0
 20
0.0
 30
0.0
  0
VERTEX
  5
3BD
330
3BC
100
AcDbEntity
  8
Layer 1
 62
     7
420
 16777215
370
    25
100
AcDbVertex
100
AcDb2dVertex
 10
65.12905634960202
 20
184.6424259063873
 30
0.0
  0
VERTEX
  5
3BE
330
3BC
100
AcDbEntity
  8
Layer 1
 62
     7
420
 16777215
370
    25
100
AcDbVertex
100
AcDb2dVertex
 10
120.6621374041776
 20
184.6424259063873
 30
0.0
  0
SEQEND
  5
3BF
330
3BC
100
AcDbEntity
  8
Layer 1
370
    25
  0
POLYLINE
  5
3C0
330
B5
100
AcDbEntity
  8
Layer 1
 62
     7
420
 16777215
370
    25
100
AcDb2dPolyline
 66
     1
 10
0.0
 20
0.0
 30
0.0
  0
VERTEX
  5
3C1
330
3C0
100
AcDbEntity
  8
Layer 1
 62
     7
420
 16777215
370
    25
100
AcDbVertex
100
AcDb2dVertex
 10
130.0217789930079
 20
198.3697624327614
 30
0.0
  0
VERTEX
  5
3C2
330
3C0
100
AcDbEntity
  8
Layer 1
 62
     7
420
 16777215
370
    25
100
AcDbVertex
100
AcDb2dVertex
 10
130.0217789930079
 20
168.758630438417
 30
0.0
  0
SEQEND
  5
3C3
330
3C0
100
AcDbEntity
  8
Layer 1
370
    25
  0
POLYLINE
  5
3C4
330
B5
100
AcDbEntity
  8
Layer 1
 62
     7
420
 16777215
370
    25
100
AcDb2dPolyline
 66
     1
 10
0.0
 20
0.0
 30
0.0
  0
VERTEX
  5
3C5
330
3C4
100
AcDbEntity
  8
Layer 1
 62
     7
420
 16777215
370
    25
100
AcDbVertex
100
AcDb2dVertex
 10
56.54990165783793
 20
198.7056594641627
 30
0.0
  0
VERTEX
  5
3C6
330
3C4
100
AcDbEntity
  8
Layer 1
 62
     7
420
 16777215
370
    25
100
AcDbVertex
100
AcDb2dVertex
 10
51.40516492098585
 20
198.525997616085
 30
0.0
  0
SEQEND
  5
3C7
330
3C4
100
AcDbEntity
  8
Layer 1
370
    25
  0
POLYLINE
  5
3C8
330
B5
100
AcDbEntity
  8
Layer 1
 62
     7
420
 16777215
370
    25
100
AcDb2dPolyline
 66
     1
 10
0.0
 20
0.0
 30
0.0
  0
VERTEX
  5
3C9
330
3C8
100
AcDbEntity
  8
Layer 1
 62
     7
420
 16777215
370
    25
100
AcDbVertex
100
AcDb2dVertex
 10
49.22269549131711
 20
198.4496887007461
 30
0.0
  0
VERTEX
  5
3CA
330
3C8
100
AcDbEntity
  8
Layer 1
 62
     7
420
 16777215
370
    25
100
AcDbVertex
100
AcDb2dVertex
 10
34.56828315827548
 20
197.9380916836888
 30
0.0
  0
SEQEND
  5
3CB
330
3C8
100
AcDbEntity
  8
Layer 1
370
    25
  0
POLYLINE
  5
3CC
330
B5
100
AcDbEntity
  8
Layer 1
 62
     7
420
 16777215
370
    25
100
AcDb2dPolyline
 66
     1
 10
0.0
 20
0.0
 30
0.0
  0
VERTEX
  5
3CD
330
3CC
100
AcDbEntity
  8
Layer 1
 62
     7
420
 16777215
370
    25
100
AcDbVertex
100
AcDb2dVertex
 10
32.38581372860675
 20
197.8616105134621
 30
0.0
  0
VERTEX
  5
3CE
330
3CC
100
AcDbEntity
  8
Layer 1
 62
     7
420
 16777215
370
    25
100
AcDbVertex
100
AcDb2dVertex
 10
30.35906271759789
 20
197.7911582643117
 30
0.0
  0
SEQEND
  5
3CF
330
3CC
100
AcDbEntity
  8
Layer 1
370
    25
  0
POLYLINE
  5
3D0
330
B5
100
AcDbEntity
  8
Layer 1
 62
     7
420
 16777215
370
    25
100
AcDb2dPolyline
 66
     1
 10
0.0
 20
0.0
 30
0.0
  0
VERTEX
  5
3D1
330
3D0
100
AcDbEntity
  8
Layer 1
 62
     7
420
 16777215
370
    25
100
AcDbVertex
100
AcDb2dVertex
 10
130.0217789930079
 20
198.3697624327614
 30
0.0
  0
VERTEX
  5
3D2
330
3D0
100
AcDbEntity
  8
Layer 1
 62
     7
420
 16777215
370
    25
100
AcDbVertex
100
AcDb2dVertex
 10
185.5550323024713
 20
198.3697624327614
 30
0.0
  0
SEQEND
  5
3D3
330
3D0
100
AcDbEntity
  8
Layer 1
370
    25
  0
POLYLINE
  5
3D4
330
B5
100
AcDbEntity
  8
Layer 1
  6
AI-Linetype-2
 62
     7
420
 16777215
370
    25
100
AcDb2dPolyline
 66
     1
 10
0.0
 20
0.0
 30
0.0
  0
VERTEX
  5
3D5
330
3D4
100
AcDbEntity
  8
Layer 1
  6
AI-Linetype-2
 62
     7
420
 16777215
370
    25
100
AcDbVertex
100
AcDb2dVertex
 10
27.98349555859541
 20
221.1211880263404
 30
0.0
  0
VERTEX
  5
3D6
330
3D4
100
AcDbEntity
  8
Layer 1
  6
AI-Linetype-2
 62
     7
420
 16777215
370
    25
100
AcDbVertex
100
AcDb2dVertex
 10
110.8859834964097
 20
224.0161036723556
 30
0.0
  0
SEQEND
  5
3D7
330
3D4
100
AcDbEntity
  8
Layer 1
  6
AI-Linetype-2
370
    25
  0
POLYLINE
  5
3D9
330
B5
100
AcDbEntity
  8
Layer 1
  6
AI-Linetype-3
 62
     7
420
 16777215
370
    25
100
AcDb2dPolyline
 66
     1
 10
0.0
 20
0.0
 30
0.0
  0
VERTEX
  5
3DA
330
3D9
100
AcDbEntity
  8
Layer 1
  6
AI-Linetype-3
 62
     7
420
 16777215
370
    25
100
AcDbVertex
100
AcDb2dVertex
 10
157.7882333928517
 20
166.2354408404859
 30
0.0
  0
VERTEX
  5
3DB
330
3D9
100
AcDbEntity
  8
Layer 1
  6
AI-Linetype-3
 62
     7
420
 16777215
370
    25
100
AcDbVertex
100
AcDb2dVertex
 10
157.7882333928517
 20
199.9297026975665
 30
0.0
  0
SEQEND
  5
3DC
330
3D9
100
AcDbEntity
  8
Layer 1
  6
AI-Linetype-3
370
    25
  0
POLYLINE
  5
3DE
330
B5
100
AcDbEntity
  8
Layer 1
 62
     7
420
 16777215
370
    25
100
AcDb2dPolyline
 66
     1
 10
0.0
 20
0.0
 30
0.0
  0
VERTEX
  5
3DF
330
3DE
100
AcDbEntity
  8
Layer 1
 62
     7
420
 16777215
370
    25
100
AcDbVertex
100
AcDb2dVertex
 10
185.5550323024713
 20
198.3697624327614
 30
0.0
  0
VERTEX
  5
3E0
330
3DE
100
AcDbEntity
  8
Layer 1
 62
     7
420
 16777215
370
    25
100
AcDbVertex
100
AcDb2dVertex
 10
185.5550323024713
 20
167.795208850403
 30
0.0
  0
SEQEND
  5
3E1
330
3DE
100
AcDbEntity
  8
Layer 1
370
    25
  0
POLYLINE
  5
3E2
330
B5
100
AcDbEntity
  8
Layer 1
 62
     7
420
 16777215
370
    25
100
AcDb2dPolyline
 66
     1
 10
0.0
 20
0.0
 30
0.0
  0
VERTEX
  5
3E3
330
3E2
100
AcDbEntity
  8
Layer 1
 62
     7
420
 16777215
370
    25
100
AcDbVertex
100
AcDb2dVertex
 10
54.9165808107883
 20
245.4749285871474
 30
0.0
  0
VERTEX
  5
3E4
330
3E2
100
AcDbEntity
  8
Layer 1
 62
     7
420
 16777215
370
    25
100
AcDbVertex
100
AcDb2dVertex
 10
49.77184407393621
 20
245.2950944841818
 30
0.0
  0
SEQEND
  5
3E5
330
3E2
100
AcDbEntity
  8
Layer 1
370
    25
  0
POLYLINE
  5
3E6
330
B5
100
AcDbEntity
  8
Layer 1
 62
     7
420
 16777215
370
    25
100
AcDb2dPolyline
 66
     1
 10
0.0
 20
0.0
 30
0.0
  0
VERTEX
  5
3E7
330
3E6
100
AcDbEntity
  8
Layer 1
 62
     7
420
 16777215
370
    25
100
AcDbVertex
100
AcDb2dVertex
 10
47.58937464426748
 20
245.2187855688429
 30
0.0
  0
VERTEX
  5
3E8
330
3E6
100
AcDbEntity
  8
Layer 1
 62
     7
420
 16777215
370
    25
100
AcDbVertex
100
AcDb2dVertex
 10
32.93513456611374
 20
244.7071885517856
 30
0.0
  0
SEQEND
  5
3E9
330
3E6
100
AcDbEntity
  8
Layer 1
370
    25
  0
POLYLINE
  5
3EA
330
B5
100
AcDbEntity
  8
Layer 1
 62
     7
420
 16777215
370
    25
100
AcDb2dPolyline
 66
     1
 10
0.0
 20
0.0
 30
0.0
  0
VERTEX
  5
3EB
330
3EA
100
AcDbEntity
  8
Layer 1
 62
     7
420
 16777215
370
    25
100
AcDbVertex
100
AcDb2dVertex
 10
30.75249288155711
 20
244.6308796364468
 30
0.0
  0
VERTEX
  5
3EC
330
3EA
100
AcDbEntity
  8
Layer 1
 62
     7
420
 16777215
370
    25
100
AcDbVertex
100
AcDb2dVertex
 10
28.72574187054825
 20
244.5602551324085
 30
0.0
  0
SEQEND
  5
3ED
330
3EA
100
AcDbEntity
  8
Layer 1
370
    25
  0
POLYLINE
  5
3EE
330
B5
100
AcDbEntity
  8
Layer 1
370
     0
100
AcDb2dPolyline
 66
     1
 10
0.0
 20
0.0
 30
0.0
  0
VERTEX
  5
3EF
330
3EE
100
AcDbEntity
  8
Layer 1
370
     0
100
AcDbVertex
100
AcDb2dVertex
 10
-14.03773983436649
 20
264.8964949427685
 30
0.0
  0
VERTEX
  5
3F0
330
3EE
100
AcDbEntity
  8
Layer 1
370
     0
100
AcDbVertex
100
AcDb2dVertex
 10
248.0287795551244
 20
264.8964949427685
 30
0.0
  0
VERTEX
  5
3F1
330
3EE
100
AcDbEntity
  8
Layer 1
370
     0
100
AcDbVertex
100
AcDb2dVertex
 10
248.0287795551244
 20
79.57796860138124
 30
0.0
  0
VERTEX
  5
3F2
330
3EE
100
AcDbEntity
  8
Layer 1
370
     0
100
AcDbVertex
100
AcDb2dVertex
 10
-14.03773983436649
 20
79.57796860138124
 30
0.0
  0
VERTEX
  5
3F3
330
3EE
100
AcDbEntity
  8
Layer 1
370
     0
100
AcDbVertex
100
AcDb2dVertex
 10
-14.03773983436649
 20
264.8964949427685
 30
0.0
  0
SEQEND
  5
3F4
330
3EE
100
AcDbEntity
  8
Layer 1
370
     0
  0
ENDBLK
  5
B8
330
B5
100
AcDbEntity
  8
0
100
AcDbBlockEnd
  0
ENDSEC
  0
SECTION
  2
ENTITIES
  0
INSERT
  5
3D
330
1F
100
AcDbEntity
  8
Layer 1
100
AcDbBlockReference
  2
block 2
 10
0.0
 20
0.0
 30
0.0
  0
MTEXT
  5
4C
330
1F
100
AcDbEntity
  8
Layer 1
 62
     7
420
 16777215
100
AcDbMText
 10
133.9591812205823
 20
36.89492992911491
 30
0.0
 40
3.920669683827083
 41
0.0
 71
     7
 72
     1
  1
\fArial|b0|i0|c0|p34;\W0.978972;159.80.65p 
 73
     1
 44
1.0
  0
MTEXT
  5
4D
330
1F
100
AcDbEntity
  8
Layer 1
 62
     7
420
 16777215
100
AcDbMText
 10
195.9998796850596
 20
16.60606021292693
 30
0.0
 40
2.63876917007248
 41
0.0
 71
     7
 72
     1
  1
\fCentury Gothic|b0|i0|c0|p34;\W0.990688;A4
 73
     1
 44
1.0
  0
MTEXT
  5
4E
330
1F
100
AcDbEntity
  8
Layer 1
 62
     7
420
 16777215
100
AcDbMText
 10
164.0283389618477
 20
7.374920770468586
 30
0.0
 40
1.360006220349461
 41
0.0
 71
     7
 72
     1
  1
\fCentury Gothic|b0|i0|c0|p34;\W0.968579;SHEET 1 OF 1
 73
     1
 44
1.0
  0
MTEXT
  5
4F
330
1F
100
AcDbEntity
  8
Layer 1
 62
     7
420
 16777215
100
AcDbMText
 10
14.37983804173209
 20
7.374920770468586
 30
0.0
 40
1.360007461723616
 41
0.0
 71
     7
 72
     1
  1
\fCentury Gothic|b0|i0|c0|p34;\W0.97601;SCALE:
 73
     1
 44
1.0
  0
MTEXT
  5
50
330
1F
100
AcDbEntity
  8
Layer 1
 62
     7
420
 16777215
100
AcDbMText
 10
92.70413556899108
 20
38.98507073887026
 30
0.0
 40
1.360002582392795
 41
0.0
 71
     7
 72
     1
  1
\fCentury Gothic|b0|i0|c0|p34;\W0.980594;CONTACT:
 73
     1
 44
1.0
  0
MTEXT
  5
51
330
1F
100
AcDbEntity
  8
Layer 1
 62
     7
420
 16777215
100
AcDbMText
 10
12.30502791699966
 20
17.3009364307078
 30
0.0
 40
1.401043046795339
 41
0.0
 71
     7
 72
     1
  1
\fArial|b0|i0|c0|p34;\W0.978962;Disclaimer: This information is intended solely as a guide for use fo Marley NZ products. Before using you should ensure that the product is suitable for use in the specific application. 
 73
     1
 44
1.0
  0
MTEXT
  5
52
330
1F
100
AcDbEntity
  8
Layer 1
 62
     7
420
 16777215
100
AcDbMText
 10
12.30502791699966
 20
14.80186251708239
 30
0.0
 40
1.401046053346698
 41
0.0
 71
     7
 72
     1
  1
\fArial|b0|i0|c0|p34;\W0.980854;Marley NZ makes no warranty regarding the use of this information with non-Marley NZ products. This drawing is the property of Marley NZ Ltd.
 73
     1
 44
1.0
  0
MTEXT
  5
53
330
1F
100
AcDbEntity
  8
Layer 1
 62
     7
420
 16777215
100
AcDbMText
 10
87.19663003822562
 20
33.60899568757105
 30
0.0
 40
2.159002374990015
 41
0.0
 71
     7
 72
     1
  1
\fArial,Bold|b0|i0|c0|p34;\W0.984785;0800 MARLEY
 73
     1
 44
1.0
  0
MTEXT
  5
54
330
1F
100
AcDbEntity
  8
Layer 1
 62
     7
420
 16777215
100
AcDbMText
 10
85.09804873896326
 20
30.43399359383356
 30
0.0
 40
2.158997867676741
 41
0.0
 71
     7
 72
     1
  1
\fArial|b0|i0|c0|p34;\W0.979154;www.marley.co.nz
 73
     1
 44
1.0
  0
MTEXT
  5
55
330
1F
100
AcDbEntity
  8
Layer 1
 62
     7
420
 16777215
100
AcDbMText
 10
23.53673562750636
 20
-8.48424224853225
 30
0.0
 40
1.919105482030737
 41
0.0
 71
     7
 72
     1
  1
\fArial|b0|i0|c0|p34;\W0.93051;1:1
 73
     1
 44
1.0
  0
MTEXT
  5
56
330
1F
100
AcDbEntity
  8
Layer 1
 62
     7
420
 16777215
100
AcDbMText
 10
122.1442184596527
 20
37.63080281021552
 30
0.0
 40
1.360004643435278
 41
0.0
 71
     7
 72
     1
  1
\fCentury Gothic|b0|i0|c0|p34;\W0.979211;DWG NO.
 73
     1
 44
1.0
  0
MTEXT
  5
57
330
1F
100
AcDbEntity
  8
Layer 1
 62
     7
420
 16777215
100
AcDbMText
 10
128.9875606460678
 20
7.325311362753938
 30
0.0
 40
1.360000406379835
 41
0.0
 71
     7
 72
     1
  1
\fCentury Gothic|b0|i0|c0|p34;\W0.971081;DATE: 30/06/11
 73
     1
 44
1.0
  0
POLYLINE
  5
58
330
1F
100
AcDbEntity
  8
Layer 1
 62
     9
420
 12632256
370
    50
100
AcDb2dPolyline
 66
     1
 10
0.0
 20
0.0
 30
0.0
  0
VERTEX
  5
59
330
58
100
AcDbEntity
  8
Layer 1
 62
     9
420
 12632256
370
    50
100
AcDbVertex
100
AcDb2dVertex
 10
205.0697885524453
 20
5.18590565505973
 30
0.0
  0
VERTEX
  5
5A
330
58
100
AcDbEntity
  8
Layer 1
 62
     9
420
 12632256
370
    50
100
AcDbVertex
100
AcDb2dVertex
 10
205.0697885524453
 20
292.2059571250187
 30
0.0
  0
SEQEND
  5
5B
330
58
100
AcDbEntity
  8
Layer 1
370
    50
  0
POLYLINE
  5
5C
330
1F
100
AcDbEntity
  8
Layer 1
 62
     9
420
 12632256
370
    50
100
AcDb2dPolyline
 66
     1
 10
0.0
 20
0.0
 30
0.0
  0
VERTEX
  5
5D
330
5C
100
AcDbEntity
  8
Layer 1
 62
     9
420
 12632256
370
    50
100
AcDbVertex
100
AcDb2dVertex
 10
205.0697885524453
 20
13.68771790215759
 30
0.0
  0
VERTEX
  5
5E
330
5C
100
AcDbEntity
  8
Layer 1
 62
     9
420
 12632256
370
    50
100
AcDbVertex
100
AcDb2dVertex
 10
192.0524866739871
 20
13.68771790215759
 30
0.0
  0
SEQEND
  5
5F
330
5C
100
AcDbEntity
  8
Layer 1
370
    50
  0
POLYLINE
  5
60
330
1F
100
AcDbEntity
  8
Layer 1
 62
     9
420
 12632256
370
    50
100
AcDb2dPolyline
 66
     1
 10
0.0
 20
0.0
 30
0.0
  0
VERTEX
  5
61
330
60
100
AcDbEntity
  8
Layer 1
 62
     9
420
 12632256
370
    50
100
AcDbVertex
100
AcDb2dVertex
 10
192.0524866739871
 20
11.21827182925065
 30
0.0
  0
VERTEX
  5
62
330
60
100
AcDbEntity
  8
Layer 1
 62
     9
420
 12632256
370
    50
100
AcDbVertex
100
AcDb2dVertex
 10
192.0524866739871
 20
22.18987465903124
 30
0.0
  0
SEQEND
  5
63
330
60
100
AcDbEntity
  8
Layer 1
370
    50
  0
POLYLINE
  5
64
330
1F
100
AcDbEntity
  8
Layer 1
 62
     9
420
 12632256
370
    50
100
AcDb2dPolyline
 66
     1
 10
0.0
 20
0.0
 30
0.0
  0
VERTEX
  5
65
330
64
100
AcDbEntity
  8
Layer 1
 62
     9
420
 12632256
370
    50
100
AcDbVertex
100
AcDb2dVertex
 10
160.8667727493663
 20
5.18590565505973
 30
0.0
  0
VERTEX
  5
66
330
64
100
AcDbEntity
  8
Layer 1
 62
     9
420
 12632256
370
    50
100
AcDbVertex
100
AcDb2dVertex
 10
160.8667727493663
 20
11.21827182925065
 30
0.0
  0
SEQEND
  5
67
330
64
100
AcDbEntity
  8
Layer 1
370
    50
  0
POLYLINE
  5
68
330
1F
100
AcDbEntity
  8
Layer 1
 62
     9
420
 12632256
370
    50
100
AcDb2dPolyline
 66
     1
 10
0.0
 20
0.0
 30
0.0
  0
VERTEX
  5
69
330
68
100
AcDbEntity
  8
Layer 1
 62
     9
420
 12632256
370
    50
100
AcDbVertex
100
AcDb2dVertex
 10
116.8752859486261
 20
43.35655528394785
 30
0.0
  0
VERTEX
  5
6A
330
68
100
AcDbEntity
  8
Layer 1
 62
     9
420
 12632256
370
    50
100
AcDbVertex
100
AcDb2dVertex
 10
116.9107704555331
 20
22.15439015212423
 30
0.0
  0
SEQEND
  5
6B
330
68
100
AcDbEntity
  8
Layer 1
370
    50
  0
POLYLINE
  5
6C
330
1F
100
AcDbEntity
  8
Layer 1
 62
     9
420
 12632256
370
    50
100
AcDb2dPolyline
 66
     1
 10
0.0
 20
0.0
 30
0.0
  0
VERTEX
  5
6D
330
6C
100
AcDbEntity
  8
Layer 1
 62
     9
420
 12632256
370
    50
100
AcDbVertex
100
AcDb2dVertex
 10
10.05417329683539
 20
22.18987465903124
 30
0.0
  0
VERTEX
  5
6E
330
6C
100
AcDbEntity
  8
Layer 1
 62
     9
420
 12632256
370
    50
100
AcDbVertex
100
AcDb2dVertex
 10
205.0697885524453
 20
22.11925015499302
 30
0.0
  0
SEQEND
  5
6F
330
6C
100
AcDbEntity
  8
Layer 1
370
    50
  0
POLYLINE
  5
70
330
1F
100
AcDbEntity
  8
Layer 1
 62
     9
420
 12632256
370
    50
100
AcDb2dPolyline
 66
     1
 10
0.0
 20
0.0
 30
0.0
  0
VERTEX
  5
71
330
70
100
AcDbEntity
  8
Layer 1
 62
     9
420
 12632256
370
    50
100
AcDbVertex
100
AcDb2dVertex
 10
10.0894855488545
 20
60.36017977814356
 30
0.0
  0
VERTEX
  5
72
330
70
100
AcDbEntity
  8
Layer 1
 62
     9
420
 12632256
370
    50
100
AcDbVertex
100
AcDb2dVertex
 10
10.0894855488545
 20
5.115281151021515
 30
0.0
  0
SEQEND
  5
73
330
70
100
AcDbEntity
  8
Layer 1
370
    50
  0
POLYLINE
  5
74
330
1F
100
AcDbEntity
  8
Layer 1
 62
     9
420
 12632256
370
    50
100
AcDb2dPolyline
 66
     1
 10
0.0
 20
0.0
 30
0.0
  0
VERTEX
  5
75
330
74
100
AcDbEntity
  8
Layer 1
 62
     9
420
 12632256
370
    50
100
AcDbVertex
100
AcDb2dVertex
 10
79.72783035385258
 20
22.15439015212423
 30
0.0
  0
VERTEX
  5
76
330
74
100
AcDbEntity
  8
Layer 1
 62
     9
420
 12632256
370
    50
100
AcDbVertex
100
AcDb2dVertex
 10
79.72783035385258
 20
43.35655528394785
 30
0.0
  0
SEQEND
  5
77
330
74
100
AcDbEntity
  8
Layer 1
370
    50
  0
POLYLINE
  5
78
330
1F
100
AcDbEntity
  8
Layer 1
 62
     9
420
 12632256
370
    50
100
AcDb2dPolyline
 66
     1
 10
0.0
 20
0.0
 30
0.0
  0
VERTEX
  5
79
330
78
100
AcDbEntity
  8
Layer 1
 62
     9
420
 12632256
370
    50
100
AcDbVertex
100
AcDb2dVertex
 10
210.0441652051662
 20
292.2059571250187
 30
0.0
  0
VERTEX
  5
7A
330
78
100
AcDbEntity
  8
Layer 1
 62
     9
420
 12632256
370
    50
100
AcDbVertex
100
AcDb2dVertex
 10
210.0441652051662
 20
297.1801615228517
 30
0.0
  0
SEQEND
  5
7B
330
78
100
AcDbEntity
  8
Layer 1
370
    50
  0
POLYLINE
  5
7C
330
1F
100
AcDbEntity
  8
Layer 1
 62
     9
420
 12632256
370
    50
100
AcDb2dPolyline
 66
     1
 10
0.0
 20
0.0
 30
0.0
  0
VERTEX
  5
7D
330
7C
100
AcDbEntity
  8
Layer 1
 62
     9
420
 12632256
370
    50
100
AcDbVertex
100
AcDb2dVertex
 10
205.0697885524453
 20
43.35655528394785
 30
0.0
  0
VERTEX
  5
7E
330
7C
100
AcDbEntity
  8
Layer 1
 62
     9
420
 12632256
370
    50
100
AcDbVertex
100
AcDb2dVertex
 10
10.0894855488545
 20
43.35655528394785
 30
0.0
  0
SEQEND
  5
7F
330
7C
100
AcDbEntity
  8
Layer 1
370
    50
  0
POLYLINE
  5
80
330
1F
100
AcDbEntity
  8
Layer 1
 62
     9
420
 12632256
370
    50
100
AcDb2dPolyline
 66
     1
 10
0.0
 20
0.0
 30
0.0
  0
VERTEX
  5
81
330
80
100
AcDbEntity
  8
Layer 1
 62
     9
420
 12632256
370
    50
100
AcDbVertex
100
AcDb2dVertex
 10
10.05417329683539
 20
11.21827182925065
 30
0.0
  0
VERTEX
  5
82
330
80
100
AcDbEntity
  8
Layer 1
 62
     9
420
 12632256
370
    50
100
AcDbVertex
100
AcDb2dVertex
 10
205.0697885524453
 20
11.21827182925065
 30
0.0
  0
SEQEND
  5
83
330
80
100
AcDbEntity
  8
Layer 1
370
    50
  0
POLYLINE
  5
84
330
1F
100
AcDbEntity
  8
Layer 1
 62
     9
420
 12632256
370
    50
100
AcDb2dPolyline
 66
     1
 10
0.0
 20
0.0
 30
0.0
  0
VERTEX
  5
85
330
84
100
AcDbEntity
  8
Layer 1
 62
     9
420
 12632256
370
    50
100
AcDbVertex
100
AcDb2dVertex
 10
10.05417329683539
 20
5.18590565505973
 30
0.0
  0
VERTEX
  5
86
330
84
100
AcDbEntity
  8
Layer 1
 62
     9
420
 12632256
370
    50
100
AcDbVertex
100
AcDb2dVertex
 10
10.05417329683539
 20
292.2059571250187
 30
0.0
  0
SEQEND
  5
87
330
84
100
AcDbEntity
  8
Layer 1
370
    50
  0
POLYLINE
  5
88
330
1F
100
AcDbEntity
  8
Layer 1
 62
     9
420
 12632256
370
    50
100
AcDb2dPolyline
 66
     1
 10
0.0
 20
0.0
 30
0.0
  0
VERTEX
  5
89
330
88
100
AcDbEntity
  8
Layer 1
 62
     9
420
 12632256
370
    50
100
AcDbVertex
100
AcDb2dVertex
 10
205.0697885524453
 20
5.18590565505973
 30
0.0
  0
VERTEX
  5
8A
330
88
100
AcDbEntity
  8
Layer 1
 62
     9
420
 12632256
370
    50
100
AcDbVertex
100
AcDb2dVertex
 10
180.9751193430371
 20
5.18590565505973
 30
0.0
  0
SEQEND
  5
8B
330
88
100
AcDbEntity
  8
Layer 1
370
    50
  0
POLYLINE
  5
8C
330
1F
100
AcDbEntity
  8
Layer 1
 62
     9
420
 12632256
370
    50
100
AcDb2dPolyline
 66
     1
 10
0.0
 20
0.0
 30
0.0
  0
VERTEX
  5
8D
330
8C
100
AcDbEntity
  8
Layer 1
 62
     9
420
 12632256
370
    50
100
AcDbVertex
100
AcDb2dVertex
 10
10.05417329683539
 20
292.2059571250187
 30
0.0
  0
VERTEX
  5
8E
330
8C
100
AcDbEntity
  8
Layer 1
 62
     9
420
 12632256
370
    50
100
AcDbVertex
100
AcDb2dVertex
 10
205.0697885524453
 20
292.2059571250187
 30
0.0
  0
SEQEND
  5
8F
330
8C
100
AcDbEntity
  8
Layer 1
370
    50
  0
POLYLINE
  5
90
330
1F
100
AcDbEntity
  8
Layer 1
 62
     9
420
 12632256
370
    50
100
AcDb2dPolyline
 66
     1
 10
0.0
 20
0.0
 30
0.0
  0
VERTEX
  5
91
330
90
100
AcDbEntity
  8
Layer 1
 62
     9
420
 12632256
370
    50
100
AcDbVertex
100
AcDb2dVertex
 10
205.0697885524453
 20
35.06627203918885
 30
0.0
  0
VERTEX
  5
92
330
90
100
AcDbEntity
  8
Layer 1
 62
     9
420
 12632256
370
    50
100
AcDbVertex
100
AcDb2dVertex
 10
116.9107704555331
 20
35.06627203918885
 30
0.0
  0
SEQEND
  5
93
330
90
100
AcDbEntity
  8
Layer 1
370
    50
  0
POLYLINE
  5
94
330
1F
100
AcDbEntity
  8
Layer 1
 62
     9
420
 12632256
370
    50
100
AcDb2dPolyline
 66
     1
 10
0.0
 20
0.0
 30
0.0
  0
VERTEX
  5
95
330
94
100
AcDbEntity
  8
Layer 1
 62
     9
420
 12632256
370
    50
100
AcDbVertex
100
AcDb2dVertex
 10
210.0441652051662
 20
0.2115290023388477
 30
0.0
  0
VERTEX
  5
96
330
94
100
AcDbEntity
  8
Layer 1
 62
     9
420
 12632256
370
    50
100
AcDbVertex
100
AcDb2dVertex
 10
210.0441652051662
 20
297.1801615228517
 30
0.0
  0
SEQEND
  5
97
330
94
100
AcDbEntity
  8
Layer 1
370
    50
  0
POLYLINE
  5
98
330
1F
100
AcDbEntity
  8
Layer 1
 62
     9
420
 12632256
370
    50
100
AcDb2dPolyline
 66
     1
 10
0.0
 20
0.0
 30
0.0
  0
VERTEX
  5
99
330
98
100
AcDbEntity
  8
Layer 1
 62
     9
420
 12632256
370
    50
100
AcDbVertex
100
AcDb2dVertex
 10
0.0706245040382146
 20
297.1801615228517
 30
0.0
  0
VERTEX
  5
9A
330
98
100
AcDbEntity
  8
Layer 1
 62
     9
420
 12632256
370
    50
100
AcDbVertex
100
AcDb2dVertex
 10
210.0441652051662
 20
297.1801615228517
 30
0.0
  0
SEQEND
  5
9B
330
98
100
AcDbEntity
  8
Layer 1
370
    50
  0
POLYLINE
  5
9C
330
1F
100
AcDbEntity
  8
Layer 1
 62
     9
420
 12632256
370
    50
100
AcDb2dPolyline
 66
     1
 10
0.0
 20
0.0
 30
0.0
  0
VERTEX
  5
9D
330
9C
100
AcDbEntity
  8
Layer 1
 62
     9
420
 12632256
370
    50
100
AcDbVertex
100
AcDb2dVertex
 10
0.0706245040382146
 20
0.2115290023388477
 30
0.0
  0
VERTEX
  5
9E
330
9C
100
AcDbEntity
  8
Layer 1
 62
     9
420
 12632256
370
    50
100
AcDbVertex
100
AcDb2dVertex
 10
0.0706245040382146
 20
297.1801615228517
 30
0.0
  0
SEQEND
  5
9F
330
9C
100
AcDbEntity
  8
Layer 1
370
    50
  0
POLYLINE
  5
A0
330
1F
100
AcDbEntity
  8
Layer 1
 62
     9
420
 12632256
370
    50
100
AcDb2dPolyline
 66
     1
 10
0.0
 20
0.0
 30
0.0
  0
VERTEX
  5
A1
330
A0
100
AcDbEntity
  8
Layer 1
 62
     9
420
 12632256
370
    50
100
AcDbVertex
100
AcDb2dVertex
 10
0.0706245040382146
 20
0.2115290023388477
 30
0.0
  0
VERTEX
  5
A2
330
A0
100
AcDbEntity
  8
Layer 1
 62
     9
420
 12632256
370
    50
100
AcDbVertex
100
AcDb2dVertex
 10
210.0441652051662
 20
0.2115290023388477
 30
0.0
  0
SEQEND
  5
A3
330
A0
100
AcDbEntity
  8
Layer 1
370
    50
  0
POLYLINE
  5
A4
330
1F
100
AcDbEntity
  8
Layer 1
 62
     9
420
 12632256
370
    50
100
AcDb2dPolyline
 66
     1
 10
0.0
 20
0.0
 30
0.0
  0
VERTEX
  5
A5
330
A4
100
AcDbEntity
  8
Layer 1
 62
     9
420
 12632256
370
    50
100
AcDbVertex
100
AcDb2dVertex
 10
10.05417329683539
 20
5.18590565505973
 30
0.0
  0
VERTEX
  5
A6
330
A4
100
AcDbEntity
  8
Layer 1
 62
     9
420
 12632256
370
    50
100
AcDbVertex
100
AcDb2dVertex
 10
205.0697885524453
 20
5.18590565505973
 30
0.0
  0
SEQEND
  5
A7
330
A4
100
AcDbEntity
  8
Layer 1
370
    50
  0
INSERT
  5
A9
330
1F
100
AcDbEntity
  8
Layer 1
100
AcDbBlockReference
  2
block 3
 10
0.0
 20
0.0
 30
0.0
  0
INSERT
  5
AE
330
1F
100
AcDbEntity
  8
Layer 1
100
AcDbBlockReference
  2
block 4
 10
0.0
 20
0.0
 30
0.0
  0
ENDSEC
  0
SECTION
  2
OBJECTS
  0
DICTIONARY
  5
C
330
0
100
AcDbDictionary
281
     1
  3
ACAD_GROUP
350
D
  3
ACAD_IMAGE_DICT
350
40
  3
ACAD_IMAGE_VARS
350
42
  3
ACAD_LAYOUT
350
1A
  3
ACAD_MLINESTYLE
350
17
  3
ACAD_PLOTSETTINGS
350
19
  3
ACAD_PLOTSTYLENAME
350
E
  3
ACAD_TABLESTYLE
350
3FC
  3
ACAD_VISUALSTYLE
350
2A
  0
IMAGEDEF_REACTOR
  5
44
330
43
100
AcDbRasterImageDefReactor
 90
        2
330
43
  0
DICTIONARY
  5
D
102
{ACAD_REACTORS
330
C
102
}
330
C
100
AcDbDictionary
281
     1
  0
DICTIONARY
  5
40
102
{ACAD_REACTORS
330
C
102
}
330
C
100
AcDbDictionary
281
     1
  3
D:\dwv\New files\PDF\159.80.65p gully_1.png
350
41
  0
RASTERVARIABLES
  5
42
102
{ACAD_REACTORS
330
C
102
}
330
C
100
AcDbRasterVariables
 90
        0
 70
     0
 71
     1
 72
     0
  0
DICTIONARY
  5
1A
102
{ACAD_REACTORS
330
C
102
}
330
C
100
AcDbDictionary
281
     1
  3
Layout1
350
1E
  3
Layout2
350
26
  3
Model
350
22
  0
DICTIONARY
  5
17
102
{ACAD_REACTORS
330
C
102
}
330
C
100
AcDbDictionary
281
     1
  3
Standard
350
18
  0
DICTIONARY
  5
19
102
{ACAD_REACTORS
330
C
102
}
330
C
100
AcDbDictionary
281
     1
  0
ACDBDICTIONARYWDFLT
  5
E
102
{ACAD_REACTORS
330
C
102
}
330
C
100
AcDbDictionary
281
     1
  3
Normal
350
F
100
AcDbDictionaryWithDefault
340
F
  0
DICTIONARY
  5
3FC
102
{ACAD_REACTORS
330
C
102
}
330
C
100
AcDbDictionary
281
     1
  0
DICTIONARY
  5
2A
102
{ACAD_REACTORS
330
C
102
}
330
C
100
AcDbDictionary
281
     1
  3
2dWireframe
350
2F
  3
3D Hidden
350
31
  3
3dWireframe
350
30
  3
Basic
350
32
  3
Brighten
350
36
  3
ColorChange
350
3A
  3
Conceptual
350
34
  3
Dim
350
35
  3
Facepattern
350
39
  3
Flat
350
2B
  3
FlatWithEdges
350
2C
  3
Gouraud
350
2D
  3
GouraudWithEdges
350
2E
  3
Linepattern
350
38
  3
Realistic
350
33
  3
Thicken
350
37
  0
IMAGEDEF
  5
41
102
{ACAD_REACTORS
330
40
330
44
102
}
330
40
100
AcDbRasterImageDef
 90
        0
  1
D:\dwv\New files\PDF\159.80.65p gully_1.png
 10
251.0
 20
40.0
 11
0.3527777777777777
 21
0.3527777777777777
280
     1
281
     5
  0
LAYOUT
  5
1E
102
{ACAD_REACTORS
330
1A
102
}
330
1A
100
AcDbPlotSettings
  1

  2
none_device
  4

  6

 40
0.0
 41
0.0
 42
0.0
 43
0.0
 44
0.0
 45
0.0
 46
0.0
 47
0.0
 48
0.0
 49
0.0
140
0.0
141
0.0
142
1.0
143
1.0
 70
   688
 72
     0
 73
     0
 74
     5
  7

 75
    16
 76
     0
 77
     2
 78
   300
147
1.0
148
0.0
149
0.0
100
AcDbLayout
  1
Layout1
 70
     1
 71
     1
 10
0.0
 20
0.0
 11
12.0
 21
9.0
 12
0.0
 22
0.0
 32
0.0
 14
1.000000000000000E+20
 24
1.000000000000000E+20
 34
1.000000000000000E+20
 15
-1.000000000000000E+20
 25
-1.000000000000000E+20
 35
-1.000000000000000E+20
146
0.0
 13
0.0
 23
0.0
 33
0.0
 16
1.0
 26
0.0
 36
0.0
 17
0.0
 27
1.0
 37
0.0
 76
     0
330
1B
  0
LAYOUT
  5
26
102
{ACAD_REACTORS
330
1A
102
}
330
1A
100
AcDbPlotSettings
  1

  2
none_device
  4

  6

 40
0.0
 41
0.0
 42
0.0
 43
0.0
 44
0.0
 45
0.0
 46
0.0
 47
0.0
 48
0.0
 49
0.0
140
0.0
141
0.0
142
1.0
143
1.0
 70
   688
 72
     0
 73
     0
 74
     5
  7

 75
    16
 76
     0
 77
     2
 78
   300
147
1.0
148
0.0
149
0.0
100
AcDbLayout
  1
Layout2
 70
     1
 71
     2
 10
0.0
 20
0.0
 11
0.0
 21
0.0
 12
0.0
 22
0.0
 32
0.0
 14
0.0
 24
0.0
 34
0.0
 15
0.0
 25
0.0
 35
0.0
146
0.0
 13
0.0
 23
0.0
 33
0.0
 16
1.0
 26
0.0
 36
0.0
 17
0.0
 27
1.0
 37
0.0
 76
     0
330
23
  0
LAYOUT
  5
22
102
{ACAD_REACTORS
330
1A
102
}
330
1A
100
AcDbPlotSettings
  1

  2
none_device
  4

  6

 40
0.0
 41
0.0
 42
0.0
 43
0.0
 44
0.0
 45
0.0
 46
0.0
 47
0.0
 48
0.0
 49
0.0
140
0.0
141
0.0
142
1.0
143
1.0
 70
  1712
 72
     0
 73
     0
 74
     0
  7

 75
     0
 76
     0
 77
     2
 78
   300
147
1.0
148
0.0
149
0.0
100
AcDbLayout
  1
Model
 70
     1
 71
     0
 10
0.0
 20
0.0
 11
12.0
 21
9.0
 12
0.0
 22
0.0
 32
0.0
 14
1.000000000000000E+20
 24
1.000000000000000E+20
 34
1.000000000000000E+20
 15
-1.000000000000000E+20
 25
-1.000000000000000E+20
 35
-1.000000000000000E+20
146
0.0
 13
0.0
 23
0.0
 33
0.0
 16
1.0
 26
0.0
 36
0.0
 17
0.0
 27
1.0
 37
0.0
 76
     0
330
1F
331
29
  0
MLINESTYLE
  5
18
102
{ACAD_REACTORS
330
17
102
}
330
17
100
AcDbMlineStyle
  2
Standard
 70
     0
  3

 62
   256
 51
90.0
 52
90.0
 71
     2
 49
0.5
 62
   256
  6
BYLAYER
 49
-0.5
 62
   256
  6
BYLAYER
  0
ACDBPLACEHOLDER
  5
F
102
{ACAD_REACTORS
330
E
102
}
330
E
  0
VISUALSTYLE
  5
2F
102
{ACAD_REACTORS
330
2A
102
}
330
2A
100
AcDbVisualStyle
  2
2dWireframe
 70
     4
 71
     0
 72
     2
 73
     0
 90
        0
 40
-0.6
 41
-30.0
 62
     5
 63
     7
421
 16777215
 74
     1
 91
        4
 64
     7
 65
   257
 75
     1
175
     1
 42
1.0
 92
        0
 66
   257
 43
1.0
 76
     1
 77
     6
 78
     2
 67
     7
 79
     5
170
     0
171
     0
290
     0
174
     0
 93
        1
 44
0.0
173
     0
291
     0
 45
0.0
1001
ACAD
1000
AcDbSavedByObjectVersion
1070
     0
  0
VISUALSTYLE
  5
31
102
{ACAD_REACTORS
330
2A
102
}
330
2A
100
AcDbVisualStyle
  2
3D Hidden
 70
     6
 71
     1
 72
     2
 73
     2
 90
        0
 40
-0.6
 41
-30.0
 62
     5
 63
     7
421
 16777215
 74
     2
 91
        2
 64
     7
 65
   257
 75
     2
175
     1
 42
40.0
 92
        0
 66
   257
 43
1.0
 76
     1
 77
     6
 78
     2
 67
     7
 79
     3
170
     0
171
     0
290
     0
174
     0
 93
        1
 44
0.0
173
     0
291
     0
 45
0.0
1001
ACAD
1000
AcDbSavedByObjectVersion
1070
     0
  0
VISUALSTYLE
  5
30
102
{ACAD_REACTORS
330
2A
102
}
330
2A
100
AcDbVisualStyle
  2
3dWireframe
 70
     5
 71
     0
 72
     2
 73
     0
 90
        0
 40
-0.6
 41
-30.0
 62
     5
 63
     7
421
 16777215
 74
     1
 91
        4
 64
     7
 65
   257
 75
     1
175
     1
 42
1.0
 92
        0
 66
   257
 43
1.0
 76
     1
 77
     6
 78
     2
 67
     7
 79
     5
170
     0
171
     0
290
     0
174
     0
 93
        1
 44
0.0
173
     0
291
     0
 45
0.0
1001
ACAD
1000
AcDbSavedByObjectVersion
1070
     0
  0
VISUALSTYLE
  5
32
102
{ACAD_REACTORS
330
2A
102
}
330
2A
100
AcDbVisualStyle
  2
Basic
 70
     7
 71
     1
 72
     0
 73
     1
 90
        0
 40
-0.6
 41
-30.0
 62
     5
 63
     7
421
 16777215
 74
     0
 91
        4
 64
     7
 65
   257
 75
     1
175
     1
 42
1.0
 92
        8
 66
     7
 43
1.0
 76
     1
 77
     6
 78
     2
 67
     7
 79
     5
170
     0
171
     0
290
     0
174
     0
 93
        1
 44
0.0
173
     0
291
     1
 45
0.0
1001
ACAD
1000
AcDbSavedByObjectVersion
1070
     0
  0
VISUALSTYLE
  5
36
102
{ACAD_REACTORS
330
2A
102
}
330
2A
100
AcDbVisualStyle
  2
Brighten
 70
    12
 71
     2
 72
     2
 73
     0
 90
        0
 40
-0.6
 41
-30.0
 62
     5
 63
     7
421
 16777215
 74
     1
 91
        4
 64
     7
 65
   257
 75
     1
175
     1
 42
1.0
 92
        8
 66
     7
 43
1.0
 76
     1
 77
     6
 78
     2
 67
     7
 79
     5
170
     0
171
     0
290
     0
174
     0
 93
        1
 44
50.0
173
     0
291
     1
 45
0.0
1001
ACAD
1000
AcDbSavedByObjectVersion
1070
     0
  0
VISUALSTYLE
  5
3A
102
{ACAD_REACTORS
330
2A
102
}
330
2A
100
AcDbVisualStyle
  2
ColorChange
 70
    16
 71
     2
 72
     2
 73
     3
 90
        0
 40
-0.6
 41
-30.0
 62
     5
 63
     8
421
  8421504
 74
     1
 91
        4
 64
     7
 65
   257
 75
     1
175
     1
 42
1.0
 92
        8
 66
     8
424
  8421504
 43
1.0
 76
     1
 77
     6
 78
     2
 67
     7
 79
     5
170
     0
171
     0
290
     0
174
     0
 93
        1
 44
0.0
173
     0
291
     1
 45
0.0
1001
ACAD
1000
AcDbSavedByObjectVersion
1070
     0
  0
VISUALSTYLE
  5
34
102
{ACAD_REACTORS
330
2A
102
}
330
2A
100
AcDbVisualStyle
  2
Conceptual
 70
     9
 71
     3
 72
     2
 73
     0
 90
        0
 40
-0.6
 41
-30.0
 62
     5
 63
     7
421
 16777215
 74
     2
 91
        2
 64
     7
 65
   257
 75
     1
175
     1
 42
40.0
 92
        8
 66
     7
 43
1.0
 76
     1
 77
     6
 78
     2
 67
     7
 79
     3
170
     0
171
     0
290
     0
174
     0
 93
        1
 44
0.0
173
     0
291
     0
 45
0.0
1001
ACAD
1000
AcDbSavedByObjectVersion
1070
     0
  0
VISUALSTYLE
  5
35
102
{ACAD_REACTORS
330
2A
102
}
330
2A
100
AcDbVisualStyle
  2
Dim
 70
    11
 71
     2
 72
     2
 73
     0
 90
        0
 40
-0.6
 41
-30.0
 62
     5
 63
     7
421
 16777215
 74
     1
 91
        4
 64
     7
 65
   257
 75
     1
175
     1
 42
1.0
 92
        8
 66
     7
 43
1.0
 76
     1
 77
     6
 78
     2
 67
     7
 79
     5
170
     0
171
     0
290
     0
174
     0
 93
        1
 44
-50.0
173
     0
291
     1
 45
0.0
1001
ACAD
1000
AcDbSavedByObjectVersion
1070
     0
  0
VISUALSTYLE
  5
39
102
{ACAD_REACTORS
330
2A
102
}
330
2A
100
AcDbVisualStyle
  2
Facepattern
 70
    15
 71
     2
 72
     2
 73
     0
 90
        0
 40
-0.6
 41
-30.0
 62
     5
 63
     7
421
 16777215
 74
     1
 91
        4
 64
     7
 65
   257
 75
     1
175
     1
 42
1.0
 92
        8
 66
     7
 43
1.0
 76
     1
 77
     6
 78
     2
 67
     7
 79
     5
170
     0
171
     0
290
     0
174
     0
 93
        1
 44
0.0
173
     0
291
     1
 45
0.0
1001
ACAD
1000
AcDbSavedByObjectVersion
1070
     0
  0
VISUALSTYLE
  5
2B
102
{ACAD_REACTORS
330
2A
102
}
330
2A
100
AcDbVisualStyle
  2
Flat
 70
     0
 71
     2
 72
     1
 73
     1
 90
        2
 40
-0.6
 41
30.0
 62
     5
 63
     7
421
 16777215
 74
     0
 91
        4
 64
     7
 65
   257
 75
     1
175
     1
 42
1.0
 92
        8
 66
     7
 43
1.0
 76
     1
 77
     6
 78
     2
 67
     7
 79
     5
170
     0
171
     0
290
     0
174
     0
 93
       13
 44
0.0
173
     0
291
     1
 45
0.0
1001
ACAD
1000
AcDbSavedByObjectVersion
1070
     0
  0
VISUALSTYLE
  5
2C
102
{ACAD_REACTORS
330
2A
102
}
330
2A
100
AcDbVisualStyle
  2
FlatWithEdges
 70
     1
 71
     2
 72
     1
 73
     1
 90
        2
 40
-0.6
 41
30.0
 62
     5
 63
     7
421
 16777215
 74
     1
 91
        4
 64
     7
 65
   257
 75
     1
175
     1
 42
1.0
 92
        0
 66
   257
 43
1.0
 76
     1
 77
     6
 78
     2
 67
     7
 79
     5
170
     0
171
     0
290
     0
174
     0
 93
       13
 44
0.0
173
     0
291
     1
 45
0.0
1001
ACAD
1000
AcDbSavedByObjectVersion
1070
     0
  0
VISUALSTYLE
  5
2D
102
{ACAD_REACTORS
330
2A
102
}
330
2A
100
AcDbVisualStyle
  2
Gouraud
 70
     2
 71
     2
 72
     2
 73
     1
 90
        2
 40
-0.6
 41
30.0
 62
     5
 63
     7
421
 16777215
 74
     0
 91
        4
 64
     7
 65
   257
 75
     1
175
     1
 42
1.0
 92
        0
 66
     7
 43
1.0
 76
     1
 77
     6
 78
     2
 67
     7
 79
     5
170
     0
171
     0
290
     0
174
     0
 93
       13
 44
0.0
173
     0
291
     1
 45
0.0
1001
ACAD
1000
AcDbSavedByObjectVersion
1070
     0
  0
VISUALSTYLE
  5
2E
102
{ACAD_REACTORS
330
2A
102
}
330
2A
100
AcDbVisualStyle
  2
GouraudWithEdges
 70
     3
 71
     2
 72
     2
 73
     1
 90
        2
 40
-0.6
 41
30.0
 62
     5
 63
     7
421
 16777215
 74
     1
 91
        4
 64
     7
 65
   257
 75
     1
175
     1
 42
1.0
 92
        0
 66
   257
 43
1.0
 76
     1
 77
     6
 78
     2
 67
     7
 79
     5
170
     0
171
     0
290
     0
174
     0
 93
       13
 44
0.0
173
     0
291
     1
 45
0.0
1001
ACAD
1000
AcDbSavedByObjectVersion
1070
     0
  0
VISUALSTYLE
  5
38
102
{ACAD_REACTORS
330
2A
102
}
330
2A
100
AcDbVisualStyle
  2
Linepattern
 70
    14
 71
     2
 72
     2
 73
     0
 90
        0
 40
-0.6
 41
-30.0
 62
     5
 63
     7
421
 16777215
 74
     1
 91
        4
 64
     7
 65
   257
 75
     7
175
     7
 42
1.0
 92
        8
 66
     7
 43
1.0
 76
     1
 77
     6
 78
     2
 67
     7
 79
     5
170
     0
171
     0
290
     0
174
     0
 93
        1
 44
0.0
173
     0
291
     1
 45
0.0
1001
ACAD
1000
AcDbSavedByObjectVersion
1070
     0
  0
VISUALSTYLE
  5
33
102
{ACAD_REACTORS
330
2A
102
}
330
2A
100
AcDbVisualStyle
  2
Realistic
 70
     8
 71
     2
 72
     2
 73
     0
 90
        0
 40
-0.6
 41
-30.0
 62
     5
 63
     7
421
 16777215
 74
     1
 91
        0
 64
     7
 65
   257
 75
     1
175
     1
 42
1.0
 92
        8
 66
     8
424
  7895160
 43
1.0
 76
     1
 77
     6
 78
     2
 67
     7
 79
     5
170
     0
171
     0
290
     0
174
     0
 93
       13
 44
0.0
173
     0
291
     0
 45
0.0
1001
ACAD
1000
AcDbSavedByObjectVersion
1070
     0
  0
VISUALSTYLE
  5
37
102
{ACAD_REACTORS
330
2A
102
}
330
2A
100
AcDbVisualStyle
  2
Thicken
 70
    13
 71
     2
 72
     2
 73
     0
 90
        0
 40
-0.6
 41
-30.0
 62
     5
 63
     7
421
 16777215
 74
     1
 91
        4
 64
     7
 65
   257
 75
     1
175
     1
 42
1.0
 92
       12
 66
     7
 43
1.0
 76
     1
 77
     6
 78
     2
 67
     7
 79
     5
170
     0
171
     0
290
     0
174
     0
 93
        1
 44
0.0
173
     0
291
     1
 45
0.0
1001
ACAD
1000
AcDbSavedByObjectVersion
1070
     0
  0
ENDSEC
  0
EOF
